  0
SECTION
  2
HEADER
  9
$ACADVER
  1
AC1015
  9
$ACADMAINTVER
 70
    20
  9
$DWGCODEPAGE
  3
ANSI_932
  9
$INSBASE
 10
0.0
 20
0.0
 30
0.0
  9
$EXTMIN
 10
-270.0164782349211
 20
-405.7624475796873
 30
-0.0015258207003583
  9
$EXTMAX
 10
270.0164807494923
 20
397.0880822710249
 30
0.0000000349246037
  9
$LIMMIN
 10
0.0
 20
0.0
  9
$LIMMAX
 10
0.0
 20
0.0
  9
$ORTHOMODE
 70
     0
  9
$REGENMODE
 70
     1
  9
$FILLMODE
 70
     1
  9
$QTEXTMODE
 70
     0
  9
$MIRRTEXT
 70
     1
  9
$LTSCALE
 40
15.24
  9
$ATTMODE
 70
     1
  9
$TEXTSIZE
 40
0.0
  9
$TRACEWID
 40
1.0
  9
$TEXTSTYLE
  7
STANDARD
  9
$CLAYER
  8
DATA
  9
$CELTYPE
  6
ByLayer
  9
$CECOLOR
 62
   256
  9
$CELTSCALE
 40
1.0
  9
$DISPSILH
 70
     0
  9
$DIMSCALE
 40
1.0
  9
$DIMASZ
 40
0.18
  9
$DIMEXO
 40
0.0625
  9
$DIMDLI
 40
0.38
  9
$DIMRND
 40
0.0
  9
$DIMDLE
 40
0.0
  9
$DIMEXE
 40
0.18
  9
$DIMTP
 40
0.0
  9
$DIMTM
 40
0.0
  9
$DIMTXT
 40
0.18
  9
$DIMCEN
 40
0.09
  9
$DIMTSZ
 40
0.0
  9
$DIMTOL
 70
     0
  9
$DIMLIM
 70
     0
  9
$DIMTIH
 70
     1
  9
$DIMTOH
 70
     1
  9
$DIMSE1
 70
     0
  9
$DIMSE2
 70
     0
  9
$DIMTAD
 70
     0
  9
$DIMZIN
 70
     0
  9
$DIMBLK
  1

  9
$DIMASO
 70
     1
  9
$DIMSHO
 70
     1
  9
$DIMPOST
  1

  9
$DIMAPOST
  1

  9
$DIMALT
 70
     0
  9
$DIMALTD
 70
     2
  9
$DIMALTF
 40
25.4
  9
$DIMLFAC
 40
1.0
  9
$DIMTOFL
 70
     0
  9
$DIMTVP
 40
0.0
  9
$DIMTIX
 70
     0
  9
$DIMSOXD
 70
     0
  9
$DIMSAH
 70
     0
  9
$DIMBLK1
  1

  9
$DIMBLK2
  1

  9
$DIMSTYLE
  2
STANDARD
  9
$DIMCLRD
 70
     0
  9
$DIMCLRE
 70
     0
  9
$DIMCLRT
 70
     0
  9
$DIMTFAC
 40
1.0
  9
$DIMGAP
 40
0.09
  9
$DIMJUST
 70
     0
  9
$DIMSD1
 70
     0
  9
$DIMSD2
 70
     0
  9
$DIMTOLJ
 70
     1
  9
$DIMTZIN
 70
     0
  9
$DIMALTZ
 70
     0
  9
$DIMALTTZ
 70
     0
  9
$DIMUPT
 70
     0
  9
$DIMDEC
 70
     4
  9
$DIMTDEC
 70
     4
  9
$DIMALTU
 70
     2
  9
$DIMALTTD
 70
     2
  9
$DIMTXSTY
  7
STANDARD
  9
$DIMAUNIT
 70
     0
  9
$DIMADEC
 70
     0
  9
$DIMALTRND
 40
0.0
  9
$DIMAZIN
 70
     0
  9
$DIMDSEP
 70
    46
  9
$DIMATFIT
 70
     3
  9
$DIMFRAC
 70
     0
  9
$DIMLDRBLK
  1

  9
$DIMLUNIT
 70
     2
  9
$DIMLWD
 70
    -2
  9
$DIMLWE
 70
    -2
  9
$DIMTMOVE
 70
     0
  9
$LUNITS
 70
     2
  9
$LUPREC
 70
     4
  9
$SKETCHINC
 40
0.1
  9
$FILLETRAD
 40
0.0
  9
$AUNITS
 70
     0
  9
$AUPREC
 70
     0
  9
$MENU
  1
acad
  9
$ELEVATION
 40
0.0
  9
$PELEVATION
 40
0.0
  9
$THICKNESS
 40
0.0
  9
$LIMCHECK
 70
     0
  9
$CHAMFERA
 40
0.0
  9
$CHAMFERB
 40
0.0
  9
$CHAMFERC
 40
0.0
  9
$CHAMFERD
 40
0.0
  9
$SKPOLY
 70
     0
  9
$TDCREATE
 40
2457157.499166667
  9
$TDUCREATE
 40
2457157.124166667
  9
$TDUPDATE
 40
2457157.506565649
  9
$TDUUPDATE
 40
2457157.131565648
  9
$TDINDWG
 40
0.0003513773
  9
$TDUSRTIMER
 40
0.0003513194
  9
$USRTIMER
 70
     1
  9
$ANGBASE
 50
0.0
  9
$ANGDIR
 70
     0
  9
$PDMODE
 70
     1
  9
$PDSIZE
 40
-2.0
  9
$PLINEWID
 40
0.0
  9
$SPLFRAME
 70
     0
  9
$SPLINETYPE
 70
     6
  9
$SPLINESEGS
 70
     8
  9
$HANDSEED
  5
2EF
  9
$SURFTAB1
 70
     6
  9
$SURFTAB2
 70
     6
  9
$SURFTYPE
 70
     6
  9
$SURFU
 70
     6
  9
$SURFV
 70
     6
  9
$UCSBASE
  2

  9
$UCSNAME
  2

  9
$UCSORG
 10
0.0
 20
0.0
 30
0.0
  9
$UCSXDIR
 10
1.0
 20
0.0
 30
0.0
  9
$UCSYDIR
 10
0.0
 20
1.0
 30
0.0
  9
$UCSORTHOREF
  2

  9
$UCSORTHOVIEW
 70
     0
  9
$UCSORGTOP
 10
0.0
 20
0.0
 30
0.0
  9
$UCSORGBOTTOM
 10
0.0
 20
0.0
 30
0.0
  9
$UCSORGLEFT
 10
0.0
 20
0.0
 30
0.0
  9
$UCSORGRIGHT
 10
0.0
 20
0.0
 30
0.0
  9
$UCSORGFRONT
 10
0.0
 20
0.0
 30
0.0
  9
$UCSORGBACK
 10
0.0
 20
0.0
 30
0.0
  9
$PUCSBASE
  2

  9
$PUCSNAME
  2

  9
$PUCSORG
 10
0.0
 20
0.0
 30
0.0
  9
$PUCSXDIR
 10
1.0
 20
0.0
 30
0.0
  9
$PUCSYDIR
 10
0.0
 20
1.0
 30
0.0
  9
$PUCSORTHOREF
  2

  9
$PUCSORTHOVIEW
 70
     0
  9
$PUCSORGTOP
 10
0.0
 20
0.0
 30
0.0
  9
$PUCSORGBOTTOM
 10
0.0
 20
0.0
 30
0.0
  9
$PUCSORGLEFT
 10
0.0
 20
0.0
 30
0.0
  9
$PUCSORGRIGHT
 10
0.0
 20
0.0
 30
0.0
  9
$PUCSORGFRONT
 10
0.0
 20
0.0
 30
0.0
  9
$PUCSORGBACK
 10
0.0
 20
0.0
 30
0.0
  9
$USERI1
 70
     0
  9
$USERI2
 70
     0
  9
$USERI3
 70
     0
  9
$USERI4
 70
     0
  9
$USERI5
 70
     0
  9
$USERR1
 40
0.0
  9
$USERR2
 40
0.0
  9
$USERR3
 40
0.0
  9
$USERR4
 40
0.0
  9
$USERR5
 40
0.0
  9
$WORLDVIEW
 70
     1
  9
$SHADEDGE
 70
     3
  9
$SHADEDIF
 70
    70
  9
$TILEMODE
 70
     1
  9
$MAXACTVP
 70
    64
  9
$PINSBASE
 10
0.0
 20
0.0
 30
0.0
  9
$PLIMCHECK
 70
     0
  9
$PEXTMIN
 10
1.000000000000000E+20
 20
1.000000000000000E+20
 30
1.000000000000000E+20
  9
$PEXTMAX
 10
-1.000000000000000E+20
 20
-1.000000000000000E+20
 30
-1.000000000000000E+20
  9
$PLIMMIN
 10
0.0
 20
0.0
  9
$PLIMMAX
 10
12.0
 20
9.0
  9
$UNITMODE
 70
     0
  9
$VISRETAIN
 70
     0
  9
$PLINEGEN
 70
     1
  9
$PSLTSCALE
 70
     0
  9
$TREEDEPTH
 70
  3020
  9
$CMLSTYLE
  2
Standard
  9
$CMLJUST
 70
     0
  9
$CMLSCALE
 40
1.0
  9
$PROXYGRAPHICS
 70
     1
  9
$MEASUREMENT
 70
     0
  9
$CELWEIGHT
370
    -1
  9
$ENDCAPS
280
     0
  9
$JOINSTYLE
280
     0
  9
$LWDISPLAY
290
     0
  9
$INSUNITS
 70
     0
  9
$HYPERLINKBASE
  1

  9
$STYLESHEET
  1

  9
$XEDIT
290
     1
  9
$CEPSNTYPE
380
     0
  9
$PSTYLEMODE
290
     1
  9
$FINGERPRINTGUID
  2
{B32C9401-079D-4A31-B23A-2EE76659D40A}
  9
$VERSIONGUID
  2
{6E5C97F5-01D8-4C0B-86BC-F9921085C4A3}
  9
$EXTNAMES
290
     1
  9
$PSVPSCALE
 40
0.0
  9
$OLESTARTUP
290
     0
  0
ENDSEC
  0
SECTION
  2
CLASSES
  0
CLASS
  1
ACDBDICTIONARYWDFLT
  2
AcDbDictionaryWithDefault
  3
ObjectDBX Classes
 90
        0
280
     0
281
     0
  0
CLASS
  1
MATERIAL
  2
AcDbMaterial
  3
ObjectDBX Classes
 90
     1153
280
     0
281
     0
  0
CLASS
  1
VISUALSTYLE
  2
AcDbVisualStyle
  3
ObjectDBX Classes
 90
     4095
280
     0
281
     0
  0
CLASS
  1
SCALE
  2
AcDbScale
  3
ObjectDBX Classes
 90
     1153
280
     0
281
     0
  0
CLASS
  1
TABLESTYLE
  2
AcDbTableStyle
  3
ObjectDBX Classes
 90
     4095
280
     0
281
     0
  0
CLASS
  1
MLEADERSTYLE
  2
AcDbMLeaderStyle
  3
ACDB_MLEADERSTYLE_CLASS
 90
     4095
280
     0
281
     0
  0
CLASS
  1
ACDBSECTIONVIEWSTYLE
  2
AcDbSectionViewStyle
  3
ObjectDBX Classes
 90
     1025
280
     0
281
     0
  0
CLASS
  1
ACDBDETAILVIEWSTYLE
  2
AcDbDetailViewStyle
  3
ObjectDBX Classes
 90
     1025
280
     0
281
     0
  0
CLASS
  1
DICTIONARYVAR
  2
AcDbDictionaryVar
  3
ObjectDBX Classes
 90
        0
280
     0
281
     0
  0
CLASS
  1
CELLSTYLEMAP
  2
AcDbCellStyleMap
  3
ObjectDBX Classes
 90
     1152
280
     0
281
     0
  0
CLASS
  1
ACDBPLACEHOLDER
  2
AcDbPlaceHolder
  3
ObjectDBX Classes
 90
        0
280
     0
281
     0
  0
CLASS
  1
LAYOUT
  2
AcDbLayout
  3
ObjectDBX Classes
 90
        0
280
     0
281
     0
  0
ENDSEC
  0
SECTION
  2
TABLES
  0
TABLE
  2
VPORT
  5
217
330
0
100
AcDbSymbolTable
 70
     1
  0
VPORT
  5
283
330
217
100
AcDbSymbolTableRecord
100
AcDbViewportTableRecord
  2
*ACTIVE
 70
     0
 10
0.0
 20
0.0
 11
1.0
 21
1.0
 12
0.0000012572855894
 22
-3.531813134582193
 13
0.0
 23
0.0
 14
1.0
 24
1.0
 15
0.0
 25
0.0
 16
0.0
 26
0.0
 36
1.0
 17
0.0
 27
0.0
 37
0.0
 40
807.2043550108013
 41
2.362732919254658
 42
50.0
 43
0.0
 44
0.0
 50
0.0
 51
0.0
 71
     0
 72
  2000
 73
     1
 74
     1
 75
     0
 76
     0
 77
     0
 78
     0
281
     0
 65
     1
110
0.0
120
0.0
130
0.0
111
1.0
121
0.0
131
0.0
112
0.0
122
1.0
132
0.0
 79
     0
146
0.0
1001
ACAD_NAV_VCDISPLAY
1070
     3
  0
ENDTAB
  0
TABLE
  2
LTYPE
  5
214
330
0
100
AcDbSymbolTable
 70
    13
  0
LTYPE
  5
269
330
214
100
AcDbSymbolTableRecord
100
AcDbLinetypeTableRecord
  2
ByBlock
 70
     0
  3

 72
    65
 73
     0
 40
0.0
  0
LTYPE
  5
26A
330
214
100
AcDbSymbolTableRecord
100
AcDbLinetypeTableRecord
  2
ByLayer
 70
     0
  3

 72
    65
 73
     0
 40
0.0
  0
LTYPE
  5
26B
330
214
100
AcDbSymbolTableRecord
100
AcDbLinetypeTableRecord
  2
CONTINUOUS
 70
     0
  3
Solid line
 72
    65
 73
     0
 40
0.0
  0
LTYPE
  5
284
330
214
100
AcDbSymbolTableRecord
100
AcDbLinetypeTableRecord
  2
STYLE_01
 70
     0
  3

 72
    65
 73
     2
 40
0.4166412353515625
 49
0.208282470703125
 74
     0
 49
-0.2083587646484375
 74
     0
  0
LTYPE
  5
285
330
214
100
AcDbSymbolTableRecord
100
AcDbLinetypeTableRecord
  2
STYLE_02
 70
     0
  3

 72
    65
 73
     2
 40
0.694427490234375
 49
0.4860687255859375
 74
     0
 49
-0.2083587646484375
 74
     0
  0
ENDTAB
  0
TABLE
  2
LAYER
  5
211
330
0
100
AcDbSymbolTable
 70
     5
  0
LAYER
  5
263
102
{ACAD_XDICTIONARY
360
299
102
}
330
211
100
AcDbSymbolTableRecord
100
AcDbLayerTableRecord
  2
0
 70
     0
 62
     7
  6
CONTINUOUS
370
    -3
390
21E
  0
LAYER
  5
282
102
{ACAD_XDICTIONARY
360
29B
102
}
330
211
100
AcDbSymbolTableRecord
100
AcDbLayerTableRecord
  2
DATA
 70
     0
 62
     7
  6
CONTINUOUS
370
    -3
390
21E
  0
LAYER
  5
290
102
{ACAD_XDICTIONARY
360
29D
102
}
330
211
100
AcDbSymbolTableRecord
100
AcDbLayerTableRecord
  2
HIBINO-BASE
 70
     0
 62
     7
  6
CONTINUOUS
370
    -3
390
21E
  0
LAYER
  5
291
102
{ACAD_XDICTIONARY
360
29F
102
}
330
211
100
AcDbSymbolTableRecord
100
AcDbLayerTableRecord
  2
SPEC
 70
     0
 62
     7
  6
CONTINUOUS
370
    -3
390
21E
  0
LAYER
  5
292
102
{ACAD_XDICTIONARY
360
2A1
102
}
330
211
100
AcDbSymbolTableRecord
100
AcDbLayerTableRecord
  2
DIMNSIONS
 70
     0
 62
     7
  6
CONTINUOUS
370
    -3
390
21E
  0
ENDTAB
  0
TABLE
  2
STYLE
  5
212
330
0
100
AcDbSymbolTable
 70
     3
  0
STYLE
  5
264
330
212
100
AcDbSymbolTableRecord
100
AcDbTextStyleTableRecord
  2
STANDARD
 70
     0
 40
0.0
 41
1.0
 50
0.0
 71
     0
 42
0.0
  3
txt
  4
BIGFONT.SHX
  0
ENDTAB
  0
TABLE
  2
VIEW
  5
215
330
0
100
AcDbSymbolTable
 70
     0
  0
ENDTAB
  0
TABLE
  2
UCS
  5
216
330
0
100
AcDbSymbolTable
 70
     0
  0
ENDTAB
  0
TABLE
  2
APPID
  5
218
330
0
100
AcDbSymbolTable
 70
     4
  0
APPID
  5
265
330
218
100
AcDbSymbolTableRecord
100
AcDbRegAppTableRecord
  2
ACAD
 70
     0
  0
APPID
  5
26C
330
218
100
AcDbSymbolTableRecord
100
AcDbRegAppTableRecord
  2
AcadAnnotative
 70
     0
  0
APPID
  5
2AD
330
218
100
AcDbSymbolTableRecord
100
AcDbRegAppTableRecord
  2
ACAD_NAV_VCDISPLAY
 70
     0
  0
APPID
  5
2E6
330
218
100
AcDbSymbolTableRecord
100
AcDbRegAppTableRecord
  2
ACAD_MLEADERVER
 70
     0
  0
ENDTAB
  0
TABLE
  2
DIMSTYLE
  5
219
330
0
100
AcDbSymbolTable
 70
     2
100
AcDbDimStyleTable
 71
     0
  0
DIMSTYLE
105
266
330
219
100
AcDbSymbolTableRecord
100
AcDbDimStyleTableRecord
  2
STANDARD
 70
     0
279
     2
340
264
  0
ENDTAB
  0
TABLE
  2
BLOCK_RECORD
  5
210
330
0
100
AcDbSymbolTable
 70
     0
  0
BLOCK_RECORD
  5
27E
330
210
100
AcDbSymbolTableRecord
100
AcDbBlockTableRecord
  2
*Model_Space
340
281
  0
BLOCK_RECORD
  5
27A
330
210
100
AcDbSymbolTableRecord
100
AcDbBlockTableRecord
  2
*Paper_Space
340
27D
  0
ENDTAB
  0
ENDSEC
  0
SECTION
  2
BLOCKS
  0
BLOCK
  5
27F
330
27E
100
AcDbEntity
  8
0
100
AcDbBlockBegin
  2
*Model_Space
 70
     0
 10
0.0
 20
0.0
 30
0.0
  3
*Model_Space
  1

  0
ENDBLK
  5
280
330
27E
100
AcDbEntity
  8
0
100
AcDbBlockEnd
  0
BLOCK
  5
27B
330
27A
100
AcDbEntity
 67
     1
  8
0
100
AcDbBlockBegin
  2
*Paper_Space
 70
     0
 10
0.0
 20
0.0
 30
0.0
  3
*Paper_Space
  1

  0
ENDBLK
  5
27C
330
27A
100
AcDbEntity
 67
     1
  8
0
100
AcDbBlockEnd
  0
ENDSEC
  0
SECTION
  2
ENTITIES
  0
LINE
  5
2E
330
27E
100
AcDbEntity
  8
HIBINO-BASE
  6
Continuous
 62
     7
100
AcDbLine
 10
-269.9999999999999
 20
397.0636300000001
 30
0.0
 11
269.9999999999999
 21
397.0636300000001
 31
0.0
  0
LINE
  5
2F
330
27E
100
AcDbEntity
  8
HIBINO-BASE
  6
Continuous
 62
     7
100
AcDbLine
 10
269.9999999999999
 20
-382.93637
 30
0.0
 11
-269.9999999999999
 21
-382.93637
 31
0.0
  0
LINE
  5
30
330
27E
100
AcDbEntity
  8
HIBINO-BASE
  6
Continuous
 62
     7
100
AcDbLine
 10
-269.9999999999999
 20
-382.93637
 30
0.0
 11
-269.9999999999999
 21
397.0636300000001
 31
0.0
  0
LINE
  5
31
330
27E
100
AcDbEntity
  8
HIBINO-BASE
  6
Continuous
 62
     7
100
AcDbLine
 10
269.9999999999999
 20
397.0636300000001
 30
0.0
 11
269.9999999999999
 21
-382.93637
 31
0.0
  0
LINE
  5
32
330
27E
100
AcDbEntity
  8
HIBINO-BASE
  6
Continuous
 62
     7
100
AcDbLine
 10
0.0000000000000213
 20
-315.43637
 30
0.0
 11
269.9999999999999
 21
-315.43637
 31
0.0
  0
LINE
  5
33
330
27E
100
AcDbEntity
  8
HIBINO-BASE
  6
Continuous
 62
     7
100
AcDbLine
 10
0.0000000000000213
 20
-382.93637
 30
0.0
 11
0.0000000000000213
 21
-315.43637
 31
0.0
  0
TEXT
  5
34
330
27E
100
AcDbEntity
  8
HIBINO-BASE
 62
     7
100
AcDbText
 10
2.700000000000037
 20
-322.96245
 30
0.0
 40
4.886523437499999
  1
NOTE
 41
0.7
 11
2.700000000000038
 21
-318.0759265625
 31
0.0
100
AcDbText
 73
     3
  0
LINE
  5
35
330
27E
100
AcDbEntity
  8
HIBINO-BASE
  6
Continuous
 62
     7
100
AcDbLine
 10
105.0
 20
-382.93637
 30
0.0
 11
105.0
 21
-315.43637
 31
0.0
  0
TEXT
  5
36
330
27E
100
AcDbEntity
  8
HIBINO-BASE
 62
     7
100
AcDbText
 10
107.7
 20
-322.96245
 30
0.0
 40
4.886523437499999
  1
TITLE
 41
0.7
 11
107.7
 21
-318.0759265625
 31
0.0
100
AcDbText
 73
     3
  0
LINE
  5
37
330
27E
100
AcDbEntity
  8
HIBINO-BASE
  6
Continuous
 62
     7
100
AcDbLine
 10
0.0000000000000213
 20
-352.93637
 30
0.0
 11
269.9999999999999
 21
-352.93637
 31
0.0
  0
TEXT
  5
38
330
27E
100
AcDbEntity
  8
HIBINO-BASE
 62
     7
100
AcDbText
 10
145.2
 20
-360.29349
 30
0.0
 40
4.886523437499999
  1
DRAWN
 41
0.7
 11
145.2
 21
-355.4069665625
 31
0.0
100
AcDbText
 73
     3
  0
TEXT
  5
39
330
27E
100
AcDbEntity
  8
HIBINO-BASE
 62
     7
100
AcDbText
 10
70.19999999999999
 20
-360.29349
 30
0.0
 40
4.886523437499999
  1
DATE
 41
0.7
 11
70.19999999999999
 21
-355.4069665625
 31
0.0
100
AcDbText
 73
     3
  0
TEXT
  5
3A
330
27E
100
AcDbEntity
  8
HIBINO-BASE
 62
     7
100
AcDbText
 10
40.2
 20
-360.29349
 30
0.0
 40
4.886523437499999
  1
SCALE
 41
0.7
 11
40.2
 21
-355.4069665625
 31
0.0
100
AcDbText
 73
     3
  0
TEXT
  5
3B
330
27E
100
AcDbEntity
  8
HIBINO-BASE
 62
     7
100
AcDbText
 10
107.7
 20
-360.29349
 30
0.0
 40
4.886523437499999
  1
DESIGN
 41
0.7
 11
107.7
 21
-355.4069665625
 31
0.0
100
AcDbText
 73
     3
  0
TEXT
  5
3C
330
27E
100
AcDbEntity
  8
HIBINO-BASE
 62
     7
100
AcDbText
 10
220.2
 20
-360.29349
 30
0.0
 40
4.886523437499999
  1
DRAWING NO.
 41
0.7
 11
220.2
 21
-355.4069665625
 31
0.0
100
AcDbText
 73
     3
  0
TEXT
  5
3D
330
27E
100
AcDbEntity
  8
HIBINO-BASE
 62
     7
100
AcDbText
 10
182.7
 20
-360.29349
 30
0.0
 40
4.886523437499999
  1
CHECK
 41
0.7
 11
182.7
 21
-355.4069665625
 31
0.0
100
AcDbText
 73
     3
  0
LINE
  5
3E
330
27E
100
AcDbEntity
  8
HIBINO-BASE
  6
Continuous
 62
     7
100
AcDbLine
 10
43.12500000000002
 20
-379.18637
 30
0.0
 11
54.37500000000007
 21
-367.93637
 31
0.0
  0
TEXT
  5
3F
330
27E
100
AcDbEntity
  8
HIBINO-BASE
 62
     7
100
AcDbText
 10
41.25000000000001
 20
-371.2632000000001
 30
0.0
 40
4.886523437499999
  1
1
 41
0.7
 11
41.25000000000001
 21
-366.3766765625001
 31
0.0
100
AcDbText
 73
     3
  0
LINE
  5
40
330
27E
100
AcDbEntity
  8
HIBINO-BASE
  6
Continuous
 62
     7
100
AcDbLine
 10
37.50000000000002
 20
-382.93637
 30
0.0
 11
37.50000000000002
 21
-352.93637
 31
0.0
  0
LINE
  5
41
330
27E
100
AcDbEntity
  8
HIBINO-BASE
  6
Continuous
 62
     7
100
AcDbLine
 10
67.49999999999997
 20
-382.93637
 30
0.0
 11
67.49999999999997
 21
-352.93637
 31
0.0
  0
LINE
  5
42
330
27E
100
AcDbEntity
  8
HIBINO-BASE
  6
Continuous
 62
     7
100
AcDbLine
 10
142.4999999999999
 20
-352.93637
 30
0.0
 11
142.4999999999999
 21
-382.93637
 31
0.0
  0
LINE
  5
43
330
27E
100
AcDbEntity
  8
HIBINO-BASE
  6
Continuous
 62
     7
100
AcDbLine
 10
217.5000000000001
 20
-352.93637
 30
0.0
 11
217.5000000000001
 21
-382.93637
 31
0.0
  0
LINE
  5
44
330
27E
100
AcDbEntity
  8
HIBINO-BASE
  6
Continuous
 62
     7
100
AcDbLine
 10
179.9999999999999
 20
-382.93637
 30
0.0
 11
179.9999999999999
 21
-352.93637
 31
0.0
  0
TEXT
  5
45
330
27E
100
AcDbEntity
  8
HIBINO-BASE
 62
     7
100
AcDbText
 10
70.06962000000005
 20
-374.34543
 30
0.0
 40
4.886523437499999
  1
'15.05.
 41
0.7
 11
70.06962000000005
 21
-369.4589065625
 31
0.0
100
AcDbText
 73
     3
  0
TEXT
  5
46
330
27E
100
AcDbEntity
  8
HIBINO-BASE
 62
     7
100
AcDbText
 10
52.50000000000002
 20
-376.8882
 30
0.0
 40
4.886523437499999
  1
3
 41
0.7
 11
52.50000000000002
 21
-372.0016765625
 31
0.0
100
AcDbText
 73
     3
  0
TEXT
  5
47
330
27E
100
AcDbEntity
  8
HIBINO-BASE
 62
     7
100
AcDbText
 10
147.0174300331038
 20
-374.34543
 30
0.0
 40
4.886523437499999
  1
N.Sasaki
 41
0.7
 11
147.0174300331038
 21
-369.4589065625
 31
0.0
100
AcDbText
 73
     3
  0
TEXT
  5
48
330
27E
100
AcDbEntity
  8
HIBINO-BASE
 62
     7
100
AcDbText
 10
11.65000000000008
 20
-377.00837
 30
0.0
 40
9.773046874999998
  1
A4
 41
0.7
 11
11.65000000000008
 21
-367.235323125
 31
0.0
100
AcDbText
 73
     3
  0
TEXT
  5
49
330
27E
100
AcDbEntity
  8
HIBINO-BASE
 62
     7
100
AcDbText
 10
2.875000000000006
 20
-360.794735
 30
0.0
 40
4.886523437499999
  1
PAPER SIZE
 41
0.7
 11
2.875000000000007
 21
-355.9082115625
 31
0.0
100
AcDbText
 73
     3
  0
TEXT
  5
4A
330
27E
100
AcDbEntity
  8
HIBINO-BASE
 62
     7
100
AcDbText
 10
-248.4479999999999
 20
-402.1624033999999
 30
0.0
 40
10.8001325390625
  1
Hibino Corporation
 41
0.7
 11
-248.4479999999999
 21
-391.3622708609375
 31
0.0
100
AcDbText
 73
     3
  0
TEXT
  5
4B
330
27E
100
AcDbEntity
  8
HIBINO-BASE
 62
     7
100
AcDbText
 10
150.20517
 20
-402.1624033999999
 30
0.0
 40
10.8001325390625
  1
ヒビノ株式会社
 41
0.7
 11
150.20517
 21
-391.3622708609375
 31
0.0
100
AcDbText
 73
     3
  0
TEXT
  5
4C
330
27E
100
AcDbEntity
  8
SPEC
 62
     7
100
AcDbText
 10
-147.2999999999999
 20
205.4887533333333
 30
0.0
 40
5.700944010416667
  1
134\U+00D743\U+00D7132mm(除突起部)
 41
0.7
 11
-147.2999999999999
 21
211.18969734375
 31
0.0
100
AcDbText
 73
     3
  0
TEXT
  5
4D
330
27E
100
AcDbEntity
  8
SPEC
 62
     7
100
AcDbText
 10
-147.0444909250633
 20
194.1109987615986
 30
0.0
 40
5.700944010416667
  1
524g
 41
0.7
 11
-147.0444909250633
 21
199.8119427720153
 31
0.0
100
AcDbText
 73
     3
  0
LINE
  5
4E
330
27E
100
AcDbEntity
  8
SPEC
  6
Continuous
 62
     7
100
AcDbLine
 10
-247.4999999999999
 20
367.06363
 30
0.0
 11
195.0000000000001
 21
367.06363
 31
0.0
  0
LINE
  5
4F
330
27E
100
AcDbEntity
  8
SPEC
  6
Continuous
 62
     7
100
AcDbLine
 10
-247.4999999999999
 20
355.81363
 30
0.0
 11
195.0000000000001
 21
355.81363
 31
0.0
  0
LINE
  5
50
330
27E
100
AcDbEntity
  8
SPEC
  6
Continuous
 62
     7
100
AcDbLine
 10
-247.4999999999999
 20
367.06363
 30
0.0
 11
-247.4999999999999
 21
299.56363
 31
0.0
  0
LINE
  5
51
330
27E
100
AcDbEntity
  8
SPEC
  6
Continuous
 62
     7
100
AcDbLine
 10
-247.4999999999999
 20
281.875
 30
0.0
 11
-247.4999999999999
 21
191.875
 31
0.0
  0
LINE
  5
52
330
27E
100
AcDbEntity
  8
SPEC
  6
Continuous
 62
     7
100
AcDbLine
 10
-149.9999999999999
 20
367.06363
 30
0.0
 11
-149.9999999999999
 21
299.56363
 31
0.0
  0
LINE
  5
53
330
27E
100
AcDbEntity
  8
SPEC
  6
Continuous
 62
     7
100
AcDbLine
 10
-149.9999999999999
 20
281.875
 30
0.0
 11
-149.9999999999999
 21
191.875
 31
0.0
  0
LINE
  5
54
330
27E
100
AcDbEntity
  8
SPEC
  6
Continuous
 62
     7
100
AcDbLine
 10
195.0000000000001
 20
367.06363
 30
0.0
 11
195.0000000000001
 21
299.56363
 31
0.0
  0
LINE
  5
55
330
27E
100
AcDbEntity
  8
SPEC
  6
Continuous
 62
     7
100
AcDbLine
 10
195.0000000000001
 20
281.875
 30
0.0
 11
195.0000000000001
 21
191.875
 31
0.0
  0
LINE
  5
56
330
27E
100
AcDbEntity
  8
SPEC
  6
Continuous
 62
     7
100
AcDbLine
 10
-247.4999999999999
 20
344.56363
 30
0.0
 11
195.0000000000001
 21
344.56363
 31
0.0
  0
LINE
  5
57
330
27E
100
AcDbEntity
  8
SPEC
  6
Continuous
 62
     7
100
AcDbLine
 10
-247.4999999999999
 20
333.31363
 30
0.0
 11
195.0000000000001
 21
333.31363
 31
0.0
  0
LINE
  5
58
330
27E
100
AcDbEntity
  8
SPEC
  6
Continuous
 62
     7
100
AcDbLine
 10
-247.4999999999999
 20
322.06363
 30
0.0
 11
195.0000000000001
 21
322.06363
 31
0.0
  0
LINE
  5
59
330
27E
100
AcDbEntity
  8
SPEC
  6
Continuous
 62
     7
100
AcDbLine
 10
-247.4999999999999
 20
310.81363
 30
0.0
 11
195.0000000000001
 21
310.81363
 31
0.0
  0
LINE
  5
5A
330
27E
100
AcDbEntity
  8
SPEC
  6
Continuous
 62
     7
100
AcDbLine
 10
-247.4999999999999
 20
299.56363
 30
0.0
 11
195.0000000000001
 21
299.56363
 31
0.0
  0
LINE
  5
5B
330
27E
100
AcDbEntity
  8
SPEC
  6
Continuous
 62
     7
100
AcDbLine
 10
-247.4999999999999
 20
281.875
 30
0.0
 11
195.0000000000001
 21
281.875
 31
0.0
  0
LINE
  5
5C
330
27E
100
AcDbEntity
  8
SPEC
  6
Continuous
 62
     7
100
AcDbLine
 10
-225.0
 20
270.625
 30
0.0
 11
195.0000000000001
 21
270.625
 31
0.0
  0
LINE
  5
5D
330
27E
100
AcDbEntity
  8
SPEC
  6
Continuous
 62
     7
100
AcDbLine
 10
-225.0
 20
259.375
 30
0.0
 11
195.0000000000001
 21
259.375
 31
0.0
  0
LINE
  5
5E
330
27E
100
AcDbEntity
  8
SPEC
  6
Continuous
 62
     7
100
AcDbLine
 10
-225.0
 20
248.125
 30
0.0
 11
195.0000000000001
 21
248.125
 31
0.0
  0
LINE
  5
5F
330
27E
100
AcDbEntity
  8
SPEC
  6
Continuous
 62
     7
100
AcDbLine
 10
-247.4999999999999
 20
236.875
 30
0.0
 11
195.0000000000001
 21
236.875
 31
0.0
  0
LINE
  5
60
330
27E
100
AcDbEntity
  8
SPEC
  6
Continuous
 62
     7
100
AcDbLine
 10
-247.4999999999999
 20
225.625
 30
0.0
 11
195.0000000000001
 21
225.625
 31
0.0
  0
LINE
  5
61
330
27E
100
AcDbEntity
  8
SPEC
  6
Continuous
 62
     7
100
AcDbLine
 10
-247.4999999999999
 20
214.375
 30
0.0
 11
195.0000000000001
 21
214.375
 31
0.0
  0
LINE
  5
62
330
27E
100
AcDbEntity
  8
SPEC
  6
Continuous
 62
     7
100
AcDbLine
 10
-247.4999999999999
 20
203.125
 30
0.0
 11
195.0000000000001
 21
203.125
 31
0.0
  0
LINE
  5
63
330
27E
100
AcDbEntity
  8
SPEC
  6
Continuous
 62
     7
100
AcDbLine
 10
-247.4999999999999
 20
191.875
 30
0.0
 11
195.0000000000001
 21
191.875
 31
0.0
  0
TEXT
  5
64
330
27E
100
AcDbEntity
  8
SPEC
 62
     7
100
AcDbText
 10
-244.8
 20
358.1773833333332
 30
0.0
 40
5.700944010416665
  1
電波形式
 41
0.7
 11
-244.8
 21
363.8783273437498
 31
0.0
100
AcDbText
 73
     3
  0
TEXT
  5
65
330
27E
100
AcDbEntity
  8
SPEC
 62
     7
100
AcDbText
 10
-244.8
 20
369.4273833333332
 30
0.0
 40
5.700944010416665
  1
システム性能
 41
0.7
 11
-244.8
 21
375.1283273437498
 31
0.0
100
AcDbText
 73
     3
  0
TEXT
  5
66
330
27E
100
AcDbEntity
  8
SPEC
 62
     7
100
AcDbText
 10
-244.8
 20
346.9273833333332
 30
0.0
 40
5.700944010416665
  1
搬送波周波数
 41
0.7
 11
-244.8
 21
352.6283273437499
 31
0.0
100
AcDbText
 73
     3
  0
TEXT
  5
67
330
27E
100
AcDbEntity
  8
SPEC
 62
     7
100
AcDbText
 10
-244.8
 20
335.6773833333333
 30
0.0
 40
5.700944010416665
  1
到達距離
 41
0.7
 11
-244.8
 21
341.3783273437499
 31
0.0
100
AcDbText
 73
     3
  0
TEXT
  5
68
330
27E
100
AcDbEntity
  8
SPEC
 62
     7
100
AcDbText
 10
-244.8
 20
313.1773833333332
 30
0.0
 40
5.700944010416665
  1
THD
 41
0.7
 11
-244.8
 21
318.8783273437499
 31
0.0
100
AcDbText
 73
     3
  0
TEXT
  5
69
330
27E
100
AcDbEntity
  8
SPEC
 62
     7
100
AcDbText
 10
-244.8
 20
324.4273833333332
 30
0.0
 40
5.700944010416665
  1
空中線電力
 41
0.7
 11
-244.8
 21
330.1283273437499
 31
0.0
100
AcDbText
 73
     3
  0
TEXT
  5
6A
330
27E
100
AcDbEntity
  8
SPEC
 62
     7
100
AcDbText
 10
-244.8
 20
301.9273833333333
 30
0.0
 40
5.700944010416665
  1
周波数特性
 41
0.7
 11
-244.8
 21
307.6283273437499
 31
0.0
100
AcDbText
 73
     3
  0
TEXT
  5
6B
330
27E
100
AcDbEntity
  8
SPEC
 62
     7
100
AcDbText
 10
-147.2999999999999
 20
358.1773833333332
 30
0.0
 40
5.700944010416665
  1
F3E
 41
0.7
 11
-147.2999999999999
 21
363.8783273437498
 31
0.0
100
AcDbText
 73
     3
  0
TEXT
  5
6C
330
27E
100
AcDbEntity
  8
SPEC
 62
     7
100
AcDbText
 10
-147.2999999999999
 20
346.9273833333332
 30
0.0
 40
5.700944010416665
  1
JP1:808.625MHz、JP2:809.125MHz
 41
0.7
 11
-147.2999999999999
 21
352.6283273437499
 31
0.0
100
AcDbText
 73
     3
  0
TEXT
  5
6D
330
27E
100
AcDbEntity
  8
SPEC
 62
     7
100
AcDbText
 10
-147.2999999999999
 20
335.6773833333333
 30
0.0
 40
5.700944010416665
  1
約20m　※見通しのよい屋外で使用した場合。　※ 使用環境により異なる。
 41
0.7
 11
-147.2999999999999
 21
341.3783273437499
 31
0.0
100
AcDbText
 73
     3
  0
TEXT
  5
6E
330
27E
100
AcDbEntity
  8
SPEC
 62
     7
100
AcDbText
 10
-147.2999999999999
 20
313.1773833333332
 30
0.0
 40
5.700944010416665
  1
0.8%%%以下
 41
0.7
 11
-147.2999999999999
 21
318.8783273437499
 31
0.0
100
AcDbText
 73
     3
  0
TEXT
  5
6F
330
27E
100
AcDbEntity
  8
SPEC
 62
     7
100
AcDbText
 10
-147.2999999999999
 20
324.4273833333332
 30
0.0
 40
5.700944010416665
  1
6mW
 41
0.7
 11
-147.2999999999999
 21
330.1283273437499
 31
0.0
100
AcDbText
 73
     3
  0
TEXT
  5
70
330
27E
100
AcDbEntity
  8
SPEC
 62
     7
100
AcDbText
 10
-147.2999999999999
 20
301.9273833333333
 30
0.0
 40
5.700944010416665
  1
40Hz～20kHz　※システム全体の帯域幅はマイクロホンにより変動。
 41
0.7
 11
-147.2999999999999
 21
307.6283273437499
 31
0.0
100
AcDbText
 73
     3
  0
TEXT
  5
71
330
27E
100
AcDbEntity
  8
SPEC
 62
     7
100
AcDbText
 10
-244.8
 20
272.9887533333332
 30
0.0
 40
5.700944010416665
  1
出力
 41
0.7
 11
-244.8
 21
278.6896973437499
 31
0.0
100
AcDbText
 73
     3
  0
TEXT
  5
72
330
27E
100
AcDbEntity
  8
SPEC
 62
     7
100
AcDbText
 10
-222.3
 20
272.9887533333332
 30
0.0
 40
5.700944010416665
  1
出力数
 41
0.7
 11
-222.3
 21
278.6896973437499
 31
0.0
100
AcDbText
 73
     3
  0
TEXT
  5
73
330
27E
100
AcDbEntity
  8
SPEC
 62
     7
100
AcDbText
 10
-222.3
 20
261.7387533333332
 30
0.0
 40
5.700944010416665
  1
端子・形式
 41
0.7
 11
-222.3
 21
267.4396973437499
 31
0.0
100
AcDbText
 73
     3
  0
TEXT
  5
74
330
27E
100
AcDbEntity
  8
SPEC
 62
     7
100
AcDbText
 10
-222.3
 20
239.2387533333333
 30
0.0
 40
5.700944010416665
  1
最大出力レベル
 41
0.7
 11
-222.3
 21
244.93969734375
 31
0.0
100
AcDbText
 73
     3
  0
TEXT
  5
75
330
27E
100
AcDbEntity
  8
SPEC
 62
     7
100
AcDbText
 10
-222.3
 20
250.4887533333333
 30
0.0
 40
5.700944010416665
  1
インピーダンス
 41
0.7
 11
-222.3
 21
256.1896973437499
 31
0.0
100
AcDbText
 73
     3
  0
TEXT
  5
76
330
27E
100
AcDbEntity
  8
SPEC
 62
     7
100
AcDbText
 10
-147.2999999999999
 20
272.9887533333332
 30
0.0
 40
5.700944010416665
  1
2
 41
0.7
 11
-147.2999999999999
 21
278.6896973437499
 31
0.0
100
AcDbText
 73
     3
  0
TEXT
  5
77
330
27E
100
AcDbEntity
  8
SPEC
 62
     7
100
AcDbText
 10
-147.2999999999999
 20
261.7387533333332
 30
0.0
 40
5.700944010416665
  1
標準フォーンジャック(3P)、電子バランス
 41
0.7
 11
-147.2999999999999
 21
267.4396973437499
 31
0.0
100
AcDbText
 73
     3
  0
TEXT
  5
78
330
27E
100
AcDbEntity
  8
SPEC
 62
     7
100
AcDbText
 10
-147.2999999999999
 20
239.2387533333333
 30
0.0
 40
5.700944010416665
  1
5.7dBu
 41
0.7
 11
-147.2999999999999
 21
244.93969734375
 31
0.0
100
AcDbText
 73
     3
  0
TEXT
  5
79
330
27E
100
AcDbEntity
  8
SPEC
 62
     7
100
AcDbText
 10
-147.2999999999999
 20
250.4887533333333
 30
0.0
 40
5.700944010416665
  1
1.3k\U+03A9
 41
0.7
 11
-147.2999999999999
 21
256.1896973437499
 31
0.0
100
AcDbText
 73
     3
  0
LINE
  5
7A
330
27E
100
AcDbEntity
  8
SPEC
  6
Continuous
 62
     7
100
AcDbLine
 10
-225.0
 20
281.875
 30
0.0
 11
-225.0
 21
236.875
 31
0.0
  0
TEXT
  5
7B
330
27E
100
AcDbEntity
  8
SPEC
 62
     7
100
AcDbText
 10
-244.8
 20
227.9887533333333
 30
0.0
 40
5.700944010416665
  1
SN比
 41
0.7
 11
-244.8
 21
233.68969734375
 31
0.0
100
AcDbText
 73
     3
  0
TEXT
  5
7C
330
27E
100
AcDbEntity
  8
SPEC
 62
     7
100
AcDbText
 10
-244.7148303680036
 20
205.4035835414265
 30
0.0
 40
5.700944010416667
  1
寸法(W\U+00D7H\U+00D7D)
 41
0.7
 11
-244.7148303680036
 21
211.1045275518432
 31
0.0
100
AcDbText
 73
     3
  0
TEXT
  5
7D
330
27E
100
AcDbEntity
  8
SPEC
 62
     7
100
AcDbText
 10
-244.6722455196425
 20
193.7916122408842
 30
0.0
 40
5.700944010416667
  1
質量
 41
0.7
 11
-244.6722455196425
 21
199.4925562513009
 31
0.0
100
AcDbText
 73
     3
  0
TEXT
  5
7E
330
27E
100
AcDbEntity
  8
SPEC
 62
     7
100
AcDbText
 10
-244.8
 20
216.7387533333333
 30
0.0
 40
5.700944010416665
  1
電源
 41
0.7
 11
-244.8
 21
222.4396973437499
 31
0.0
100
AcDbText
 73
     3
  0
TEXT
  5
7F
330
27E
100
AcDbEntity
  8
SPEC
 62
     7
100
AcDbText
 10
-147.2999999999999
 20
227.9887533333333
 30
0.0
 40
5.700944010416665
  1
110dB(Aウェイト)
 41
0.7
 11
-147.2999999999999
 21
233.68969734375
 31
0.0
100
AcDbText
 73
     3
  0
TEXT
  5
80
330
27E
100
AcDbEntity
  8
SPEC
 62
     7
100
AcDbText
 10
-147.2999999999999
 20
216.7387533333333
 30
0.0
 40
5.700944010416665
  1
DC12V(0.5A)、ACアダプタ ー(AC100V、50/60Hz)
 41
0.7
 11
-147.2999999999999
 21
222.4396973437499
 31
0.0
100
AcDbText
 73
     3
  0
TEXT
  5
81
330
27E
100
AcDbEntity
  8
SPEC
 62
     7
100
AcDbText
 10
-244.8
 20
284.2387533333331
 30
0.0
 40
5.700944010416665
  1
2チャンネル受信機(SR40 MINI PRO2)仕様
 41
0.7
 11
-244.8
 21
289.9396973437498
 31
0.0
100
AcDbText
 73
     3
  0
TEXT
  5
82
330
27E
100
AcDbEntity
  8
DIMNSIONS
 62
     7
100
AcDbText
 10
-59.99999999999998
 20
-346.1279
 30
0.0
 40
7.329785156249999
  1
(単位：mm)
 41
0.7
 11
-59.99999999999998
 21
-338.7981148437499
 31
0.0
100
AcDbText
 73
     3
  0
LINE
  5
83
330
27E
100
AcDbEntity
  8
DIMNSIONS
  6
Continuous
 62
     7
100
AcDbLine
 10
-195.4999999999994
 20
-224.999999999998
 30
0.0
 11
-243.5000000000012
 21
-224.999999999998
 31
0.0
  0
LINE
  5
84
330
27E
100
AcDbEntity
  8
DIMNSIONS
  6
Continuous
 62
     7
100
AcDbLine
 10
-195.4999999999994
 20
-182.499999999998
 30
0.0
 11
-243.5000000000012
 21
-182.499999999998
 31
0.0
  0
LINE
  5
85
330
27E
100
AcDbEntity
  8
DIMNSIONS
  6
Continuous
 62
     7
100
AcDbLine
 10
-237.5000000000012
 20
-224.999999999998
 30
0.0
 11
-237.5000000000012
 21
-182.499999999998
 31
0.0
  0
LINE
  5
86
330
27E
100
AcDbEntity
  8
DIMNSIONS
  6
Continuous
 62
     7
100
AcDbLine
 10
-237.5000000000012
 20
-224.999999999998
 30
0.0
 11
-239.510119385452
 21
-217.4981323242167
 31
0.0
  0
LINE
  5
87
330
27E
100
AcDbEntity
  8
DIMNSIONS
  6
Continuous
 62
     7
100
AcDbLine
 10
-237.5000000000012
 20
-224.999999999998
 30
0.0
 11
-235.4898806145505
 21
-217.4981323242167
 31
0.0
  0
LINE
  5
88
330
27E
100
AcDbEntity
  8
DIMNSIONS
  6
Continuous
 62
     7
100
AcDbLine
 10
-237.5000000000012
 20
-182.499999999998
 30
0.0
 11
-235.4898806145505
 21
-190.0018676757792
 31
0.0
  0
LINE
  5
89
330
27E
100
AcDbEntity
  8
DIMNSIONS
  6
Continuous
 62
     7
100
AcDbLine
 10
-237.5000000000012
 20
-182.499999999998
 30
0.0
 11
-239.510119385452
 21
-190.0018676757792
 31
0.0
  0
TEXT
  5
8A
330
27E
100
AcDbEntity
  8
DIMNSIONS
 62
     7
100
AcDbText
 10
-240.4816666887465
 20
-214.3333333333313
 30
0.0
 40
8.144205850524794
  1
42.5
 50
90.0
 41
0.7
 11
-248.6258725392713
 21
-214.3333333333313
 31
0.0
100
AcDbText
 73
     3
  0
LINE
  5
8B
330
27E
100
AcDbEntity
  8
DIMNSIONS
  6
Continuous
 62
     7
100
AcDbLine
 10
-191.9999999999994
 20
-227.8379052915322
 30
0.0
 11
-191.9999999999994
 21
-268.5
 31
0.0
  0
LINE
  5
8C
330
27E
100
AcDbEntity
  8
DIMNSIONS
  6
Continuous
 62
     7
100
AcDbLine
 10
-58.00000000000064
 20
-227.8379052915322
 30
0.0
 11
-58.00000000000064
 21
-268.5
 31
0.0
  0
LINE
  5
8D
330
27E
100
AcDbEntity
  8
DIMNSIONS
  6
Continuous
 62
     7
100
AcDbLine
 10
-191.9999999999994
 20
-262.5
 30
0.0
 11
-58.00000000000064
 21
-262.5
 31
0.0
  0
LINE
  5
8E
330
27E
100
AcDbEntity
  8
DIMNSIONS
  6
Continuous
 62
     7
100
AcDbLine
 10
-191.9999999999994
 20
-262.5
 30
0.0
 11
-184.4981323242181
 21
-260.4898806145493
 31
0.0
  0
LINE
  5
8F
330
27E
100
AcDbEntity
  8
DIMNSIONS
  6
Continuous
 62
     7
100
AcDbLine
 10
-191.9999999999994
 20
-262.5
 30
0.0
 11
-184.4981323242181
 21
-264.5101193854507
 31
0.0
  0
LINE
  5
90
330
27E
100
AcDbEntity
  8
DIMNSIONS
  6
Continuous
 62
     7
100
AcDbLine
 10
-58.00000000000064
 20
-262.5
 30
0.0
 11
-65.50186767578188
 21
-264.5101193854507
 31
0.0
  0
LINE
  5
91
330
27E
100
AcDbEntity
  8
DIMNSIONS
  6
Continuous
 62
     7
100
AcDbLine
 10
-58.00000000000064
 20
-262.5
 30
0.0
 11
-65.50186767578188
 21
-260.4898806145493
 31
0.0
  0
TEXT
  5
92
330
27E
100
AcDbEntity
  8
DIMNSIONS
 62
     7
100
AcDbText
 10
-132.9375
 20
-259.5183333112548
 30
0.0
 40
8.144205850524794
  1
134
 41
0.7
 11
-132.9375
 21
-251.37412746073
 31
0.0
100
AcDbText
 73
     3
  0
LINE
  5
93
330
27E
100
AcDbEntity
  8
DIMNSIONS
  6
Continuous
 62
     7
100
AcDbLine
 10
-131.0
 20
-75.0
 30
0.0
 11
-243.5000000000012
 21
-75.0
 31
0.0
  0
LINE
  5
94
330
27E
100
AcDbEntity
  8
DIMNSIONS
  6
Continuous
 62
     7
100
AcDbLine
 10
-197.9999999999994
 20
57.0
 30
0.0
 11
-243.5000000000012
 21
57.0
 31
0.0
  0
LINE
  5
95
330
27E
100
AcDbEntity
  8
DIMNSIONS
  6
Continuous
 62
     7
100
AcDbLine
 10
-237.5000000000012
 20
-75.0
 30
0.0
 11
-237.5000000000012
 21
57.0
 31
0.0
  0
LINE
  5
96
330
27E
100
AcDbEntity
  8
DIMNSIONS
  6
Continuous
 62
     7
100
AcDbLine
 10
-237.5000000000012
 20
-75.0
 30
0.0
 11
-239.510119385452
 21
-67.49813232421875
 31
0.0
  0
LINE
  5
97
330
27E
100
AcDbEntity
  8
DIMNSIONS
  6
Continuous
 62
     7
100
AcDbLine
 10
-237.5000000000012
 20
-75.0
 30
0.0
 11
-235.4898806145505
 21
-67.49813232421875
 31
0.0
  0
LINE
  5
98
330
27E
100
AcDbEntity
  8
DIMNSIONS
  6
Continuous
 62
     7
100
AcDbLine
 10
-237.5000000000012
 20
57.0
 30
0.0
 11
-235.4898806145505
 21
49.49813232421875
 31
0.0
  0
LINE
  5
99
330
27E
100
AcDbEntity
  8
DIMNSIONS
  6
Continuous
 62
     7
100
AcDbLine
 10
-237.5000000000012
 20
57.0
 30
0.0
 11
-239.510119385452
 21
49.49813232421875
 31
0.0
  0
TEXT
  5
9A
330
27E
100
AcDbEntity
  8
DIMNSIONS
 62
     7
100
AcDbText
 10
-240.4816667549821
 20
-16.93750050465265
 30
0.0
 40
8.144206214599217
  1
132
 50
90.0
 41
0.7
 11
-248.6258729695814
 21
-16.93750050465265
 31
0.0
100
AcDbText
 73
     3
  0
LINE
  5
9B
330
27E
100
AcDbEntity
  8
DIMNSIONS
  6
Continuous
 62
     7
100
AcDbLine
 10
41.79369295547211
 20
-231.499999999998
 30
0.0
 11
41.79369295547211
 21
-268.5
 31
0.0
  0
LINE
  5
9C
330
27E
100
AcDbEntity
  8
DIMNSIONS
  6
Continuous
 62
     7
100
AcDbLine
 10
124.7952304709927
 20
-228.587665350331
 30
0.0
 11
124.7952304709927
 21
-268.5
 31
0.0
  0
LINE
  5
9D
330
27E
100
AcDbEntity
  8
DIMNSIONS
  6
Continuous
 62
     7
100
AcDbLine
 10
41.79369295547211
 20
-262.5
 30
0.0
 11
124.7952304709927
 21
-262.5
 31
0.0
  0
LINE
  5
9E
330
27E
100
AcDbEntity
  8
DIMNSIONS
  6
Continuous
 62
     7
100
AcDbLine
 10
41.79369295547211
 20
-262.5
 30
0.0
 11
49.29556063125335
 21
-260.4898806145493
 31
0.0
  0
LINE
  5
9F
330
27E
100
AcDbEntity
  8
DIMNSIONS
  6
Continuous
 62
     7
100
AcDbLine
 10
41.79369295547211
 20
-262.5
 30
0.0
 11
49.29556063125335
 21
-264.5101193854507
 31
0.0
  0
LINE
  5
A0
330
27E
100
AcDbEntity
  8
DIMNSIONS
  6
Continuous
 62
     7
100
AcDbLine
 10
124.7952304709927
 20
-262.5
 30
0.0
 11
117.2933627952114
 21
-264.5101193854507
 31
0.0
  0
LINE
  5
A1
330
27E
100
AcDbEntity
  8
DIMNSIONS
  6
Continuous
 62
     7
100
AcDbLine
 10
124.7952304709927
 20
-262.5
 30
0.0
 11
117.2933627952114
 21
-260.4898806145493
 31
0.0
  0
TEXT
  5
A2
330
27E
100
AcDbEntity
  8
DIMNSIONS
 62
     7
100
AcDbText
 10
72.71112737059377
 20
-259.5183332229406
 30
0.0
 40
8.14420633595736
  1
83.0
 41
0.7
 11
72.71112737059377
 21
-251.3741268869832
 31
0.0
100
AcDbText
 73
     3
  0
LINE
  5
A3
330
27E
100
AcDbEntity
  8
DIMNSIONS
  6
Continuous
 62
     7
100
AcDbLine
 10
133.2936929554721
 20
-182.499999999998
 30
0.0
 11
156.0
 21
-182.499999999998
 31
0.0
  0
LINE
  5
A4
330
27E
100
AcDbEntity
  8
DIMNSIONS
  6
Continuous
 62
     7
100
AcDbLine
 10
130.7534828216675
 20
-115.5214400017371
 30
0.0
 11
156.0
 21
-115.5214400017371
 31
0.0
  0
LINE
  5
A5
330
27E
100
AcDbEntity
  8
DIMNSIONS
  6
Continuous
 62
     7
100
AcDbLine
 10
150.0
 20
-182.499999999998
 30
0.0
 11
150.0
 21
-115.5214400017371
 31
0.0
  0
LINE
  5
A6
330
27E
100
AcDbEntity
  8
DIMNSIONS
  6
Continuous
 62
     7
100
AcDbLine
 10
150.0
 20
-182.499999999998
 30
0.0
 11
147.9898806145492
 21
-174.9981323242167
 31
0.0
  0
LINE
  5
A7
330
27E
100
AcDbEntity
  8
DIMNSIONS
  6
Continuous
 62
     7
100
AcDbLine
 10
150.0
 20
-182.499999999998
 30
0.0
 11
152.0101193854507
 21
-174.9981323242167
 31
0.0
  0
LINE
  5
A8
330
27E
100
AcDbEntity
  8
DIMNSIONS
  6
Continuous
 62
     7
100
AcDbLine
 10
150.0
 20
-115.5214400017371
 30
0.0
 11
152.0101193854507
 21
-123.0233076775183
 31
0.0
  0
LINE
  5
A9
330
27E
100
AcDbEntity
  8
DIMNSIONS
  6
Continuous
 62
     7
100
AcDbLine
 10
150.0
 20
-115.5214400017371
 30
0.0
 11
147.9898806145492
 21
-123.0233076775183
 31
0.0
  0
TEXT
  5
AA
330
27E
100
AcDbEntity
  8
DIMNSIONS
 62
     7
100
AcDbText
 10
147.0183333333333
 20
-159.5940533342008
 30
0.0
 40
8.144205729166666
  1
67.0
 50
90.0
 41
0.7
 11
138.8741276041666
 21
-159.5940533342008
 31
0.0
100
AcDbText
 73
     3
  0
LINE
  5
AB
330
27E
100
AcDbEntity
  8
DIMNSIONS
  6
Continuous
 62
     7
100
AcDbLine
 10
133.2936929554721
 20
-224.999999999998
 30
0.0
 11
156.0
 21
-224.999999999998
 31
0.0
  0
LINE
  5
AC
330
27E
100
AcDbEntity
  8
DIMNSIONS
  6
Continuous
 62
     7
100
AcDbLine
 10
130.7936929614323
 20
-295.4999999940375
 30
0.0
 11
156.0
 21
-295.4999999940375
 31
0.0
  0
LINE
  5
AD
330
27E
100
AcDbEntity
  8
DIMNSIONS
  6
Continuous
 62
     7
100
AcDbLine
 10
150.0
 20
-224.999999999998
 30
0.0
 11
150.0
 21
-295.4999999940375
 31
0.0
  0
LINE
  5
AE
330
27E
100
AcDbEntity
  8
DIMNSIONS
  6
Continuous
 62
     7
100
AcDbLine
 10
150.0
 20
-224.999999999998
 30
0.0
 11
152.0101193854507
 21
-232.5018676757792
 31
0.0
  0
LINE
  5
AF
330
27E
100
AcDbEntity
  8
DIMNSIONS
  6
Continuous
 62
     7
100
AcDbLine
 10
150.0
 20
-224.999999999998
 30
0.0
 11
147.9898806145492
 21
-232.5018676757792
 31
0.0
  0
LINE
  5
B0
330
27E
100
AcDbEntity
  8
DIMNSIONS
  6
Continuous
 62
     7
100
AcDbLine
 10
150.0
 20
-295.4999999940375
 30
0.0
 11
147.9898806145492
 21
-287.9981323182562
 31
0.0
  0
LINE
  5
B1
330
27E
100
AcDbEntity
  8
DIMNSIONS
  6
Continuous
 62
     7
100
AcDbLine
 10
150.0
 20
-295.4999999940375
 30
0.0
 11
152.0101193854507
 21
-287.9981323182562
 31
0.0
  0
TEXT
  5
B2
330
27E
100
AcDbEntity
  8
DIMNSIONS
 62
     7
100
AcDbText
 10
147.0183333333333
 20
-270.8333333303511
 30
0.0
 40
8.144205729166666
  1
70.5
 50
90.0
 41
0.7
 11
138.8741276041666
 21
-270.8333333303511
 31
0.0
100
AcDbText
 73
     3
  0
LINE
  5
B3
330
27E
100
AcDbEntity
  8
DIMNSIONS
  6
Continuous
 62
     7
100
AcDbLine
 10
-223.5453020266437
 20
-84.0
 30
0.0
 11
-243.5
 21
-84.0
 31
0.0
  0
LINE
  5
B4
330
27E
100
AcDbEntity
  8
DIMNSIONS
  6
Continuous
 62
     7
100
AcDbLine
 10
-131.0
 20
-75.0
 30
0.0
 11
-243.5
 21
-75.0
 31
0.0
  0
LINE
  5
B5
330
27E
100
AcDbEntity
  8
DIMNSIONS
  6
Continuous
 62
     7
100
AcDbLine
 10
-237.5
 20
-75.0
 30
0.0
 11
-237.5
 21
-84.0
 31
0.0
  0
LINE
  5
B6
330
27E
100
AcDbEntity
  8
DIMNSIONS
  6
Continuous
 62
     7
100
AcDbLine
 10
-237.5
 20
-84.0
 30
0.0
 11
-237.5
 21
-103.375
 31
0.0
  0
LINE
  5
B7
330
27E
100
AcDbEntity
  8
DIMNSIONS
  6
Continuous
 62
     7
100
AcDbLine
 10
-237.5
 20
-84.0
 30
0.0
 11
-235.4898806145493
 21
-91.50186767578123
 31
0.0
  0
LINE
  5
B8
330
27E
100
AcDbEntity
  8
DIMNSIONS
  6
Continuous
 62
     7
100
AcDbLine
 10
-237.5
 20
-84.0
 30
0.0
 11
-239.5101193854507
 21
-91.50186767578123
 31
0.0
  0
LINE
  5
B9
330
27E
100
AcDbEntity
  8
DIMNSIONS
  6
Continuous
 62
     7
100
AcDbLine
 10
-237.5
 20
-75.0
 30
0.0
 11
-237.5
 21
-60.0
 31
0.0
  0
LINE
  5
BA
330
27E
100
AcDbEntity
  8
DIMNSIONS
  6
Continuous
 62
     7
100
AcDbLine
 10
-237.5
 20
-75.0
 30
0.0
 11
-239.5101193854507
 21
-67.49813232421875
 31
0.0
  0
LINE
  5
BB
330
27E
100
AcDbEntity
  8
DIMNSIONS
  6
Continuous
 62
     7
100
AcDbLine
 10
-237.5
 20
-75.0
 30
0.0
 11
-235.4898806145493
 21
-67.49813232421875
 31
0.0
  0
TEXT
  5
BC
330
27E
100
AcDbEntity
  8
DIMNSIONS
 62
     7
100
AcDbText
 10
-240.4816666666666
 20
-103.375
 30
0.0
 40
8.144205729166666
  1
9.0
 50
90.0
 41
0.7
 11
-248.6258723958333
 21
-103.375
 31
0.0
100
AcDbText
 73
     3
  0
LINE
  5
BD
330
27E
100
AcDbEntity
  8
DIMNSIONS
  6
Continuous
 62
     7
100
AcDbLine
 10
-191.9999999999994
 20
-228.499999999998
 30
0.0
 11
-191.9999999999994
 21
-268.5
 31
0.0
  0
LINE
  5
BE
330
27E
100
AcDbEntity
  8
DIMNSIONS
  6
Continuous
 62
     7
100
AcDbLine
 10
-258.0000000000058
 20
-221.9999999977294
 30
0.0
 11
-258.0000000000058
 21
-268.5
 31
0.0
  0
LINE
  5
BF
330
27E
100
AcDbEntity
  8
DIMNSIONS
  6
Continuous
 62
     7
100
AcDbLine
 10
-191.9999999999994
 20
-262.5
 30
0.0
 11
-258.0000000000058
 21
-262.5
 31
0.0
  0
LINE
  5
C0
330
27E
100
AcDbEntity
  8
DIMNSIONS
  6
Continuous
 62
     7
100
AcDbLine
 10
-191.9999999999994
 20
-262.5
 30
0.0
 11
-199.5018676757806
 21
-264.5101193854507
 31
0.0
  0
LINE
  5
C1
330
27E
100
AcDbEntity
  8
DIMNSIONS
  6
Continuous
 62
     7
100
AcDbLine
 10
-191.9999999999994
 20
-262.5
 30
0.0
 11
-199.5018676757806
 21
-260.4898806145493
 31
0.0
  0
LINE
  5
C2
330
27E
100
AcDbEntity
  8
DIMNSIONS
  6
Continuous
 62
     7
100
AcDbLine
 10
-258.0000000000058
 20
-262.5
 30
0.0
 11
-250.4981323242245
 21
-260.4898806145493
 31
0.0
  0
LINE
  5
C3
330
27E
100
AcDbEntity
  8
DIMNSIONS
  6
Continuous
 62
     7
100
AcDbLine
 10
-258.0000000000058
 20
-262.5
 30
0.0
 11
-250.4981323242245
 21
-264.5101193854507
 31
0.0
  0
TEXT
  5
C4
330
27E
100
AcDbEntity
  8
DIMNSIONS
 62
     7
100
AcDbText
 10
-235.583333333336
 20
-259.5183333333333
 30
0.0
 40
8.144205729166666
  1
66.0
 41
0.7
 11
-235.583333333336
 21
-251.3741276041666
 31
0.0
100
AcDbText
 73
     3
  0
LINE
  5
C5
330
27E
100
AcDbEntity
  8
DIMNSIONS
  6
Continuous
 62
     7
100
AcDbLine
 10
-58.00000000000064
 20
-228.499999999998
 30
0.0
 11
-58.00000000000064
 21
-268.5
 31
0.0
  0
LINE
  5
C6
330
27E
100
AcDbEntity
  8
DIMNSIONS
  6
Continuous
 62
     7
100
AcDbLine
 10
10.50000000001441
 20
-201.4999999999939
 30
0.0
 11
10.50000000001441
 21
-268.5
 31
0.0
  0
LINE
  5
C7
330
27E
100
AcDbEntity
  8
DIMNSIONS
  6
Continuous
 62
     7
100
AcDbLine
 10
-58.00000000000064
 20
-262.5
 30
0.0
 11
10.50000000001441
 21
-262.5
 31
0.0
  0
LINE
  5
C8
330
27E
100
AcDbEntity
  8
DIMNSIONS
  6
Continuous
 62
     7
100
AcDbLine
 10
-58.00000000000064
 20
-262.5
 30
0.0
 11
-50.49813232421939
 21
-260.4898806145493
 31
0.0
  0
LINE
  5
C9
330
27E
100
AcDbEntity
  8
DIMNSIONS
  6
Continuous
 62
     7
100
AcDbLine
 10
-58.00000000000064
 20
-262.5
 30
0.0
 11
-50.49813232421939
 21
-264.5101193854507
 31
0.0
  0
LINE
  5
CA
330
27E
100
AcDbEntity
  8
DIMNSIONS
  6
Continuous
 62
     7
100
AcDbLine
 10
10.50000000001441
 20
-262.5
 30
0.0
 11
2.99813232423316
 21
-264.5101193854507
 31
0.0
  0
LINE
  5
CB
330
27E
100
AcDbEntity
  8
DIMNSIONS
  6
Continuous
 62
     7
100
AcDbLine
 10
10.50000000001441
 20
-262.5
 30
0.0
 11
2.99813232423316
 21
-260.4898806145493
 31
0.0
  0
TEXT
  5
CC
330
27E
100
AcDbEntity
  8
DIMNSIONS
 62
     7
100
AcDbText
 10
-34.33333333332645
 20
-259.5183333333333
 30
0.0
 40
8.144205729166666
  1
68.5
 41
0.7
 11
-34.33333333332645
 21
-251.3741276041666
 31
0.0
100
AcDbText
 73
     3
  0
TEXT
  5
CD
330
27E
100
AcDbEntity
  8
DATA
 62
     7
100
AcDbText
 10
149.9999999999999
 20
-349.2030007237036
 30
0.0
 40
7.329785156249999
  1
SR40 MINI PRO2
 41
0.7
 11
149.9999999999999
 21
-341.8732155674536
 31
0.0
100
AcDbText
 73
     3
  0
TEXT
  5
CE
330
27E
100
AcDbEntity
  8
DATA
 62
     7
100
AcDbText
 10
149.9999999999999
 20
-327.7937
 30
0.0
 40
7.329785156249999
  1
AKG
 41
0.7
 11
149.9999999999999
 21
-320.4639148437499
 31
0.0
100
AcDbText
 73
     3
  0
TEXT
  5
CF
330
27E
100
AcDbEntity
  8
DATA
 62
     7
100
AcDbText
 10
-262.5
 20
-359.3075366666667
 30
0.0
 40
5.700944010416667
  1
※仕様及び外観は予告なく変更されることがあります。
 41
0.7
 11
-262.5
 21
-353.6065926562501
 31
0.0
100
AcDbText
 73
     3
  0
TEXT
  5
D0
330
27E
100
AcDbEntity
  8
DATA
 62
     7
100
AcDbText
 10
-262.5
 20
-366.7158699999999
 30
0.0
 40
5.700944010416667
  1
　また、同一商品でも若干の個体差があることがあります。ご了承ください。
 41
0.7
 11
-262.5
 21
-361.0149259895833
 31
0.0
100
AcDbText
 73
     3
  0
LINE
  5
D1
330
27E
100
AcDbEntity
  8
DATA
  6
Continuous
 62
     7
100
AcDbLine
 10
-191.9999999999994
 20
-222.499999999998
 30
0.0
 11
-191.9999999999994
 21
-198.751288691732
 31
0.0
  0
LINE
  5
D2
330
27E
100
AcDbEntity
  8
DATA
  6
Continuous
 62
     7
100
AcDbLine
 10
-60.50000000000068
 20
-224.999999999998
 30
0.0
 11
-116.2000000000013
 21
-224.999999999998
 31
0.0
  0
LINE
  5
D3
330
27E
100
AcDbEntity
  8
DATA
  6
Continuous
 62
     7
100
AcDbLine
 10
-117.5000000000013
 20
-224.999999999998
 30
0.0
 11
-132.5000000000011
 21
-224.999999999998
 31
0.0
  0
LINE
  5
D4
330
27E
100
AcDbEntity
  8
DATA
  6
Continuous
 62
     7
100
AcDbLine
 10
-133.8000000000012
 20
-224.999999999998
 30
0.0
 11
-189.4999999999994
 21
-224.999999999998
 31
0.0
  0
LINE
  5
D5
330
27E
100
AcDbEntity
  8
DATA
  6
Continuous
 62
     7
100
AcDbLine
 10
-58.00000000000064
 20
-184.999999999998
 30
0.0
 11
-58.00000000000064
 21
-222.499999999998
 31
0.0
  0
LINE
  5
D6
330
27E
100
AcDbEntity
  8
DATA
  6
Continuous
 62
     7
100
AcDbLine
 10
-189.4999999999994
 20
-182.499999999998
 30
0.0
 11
-154.8000000000004
 21
-182.499999999998
 31
0.0
  0
LINE
  5
D7
330
27E
100
AcDbEntity
  8
DATA
  6
Continuous
 62
     7
100
AcDbLine
 10
-153.5000000000005
 20
-182.499999999998
 30
0.0
 11
-96.50000000000101
 21
-182.499999999998
 31
0.0
  0
LINE
  5
D8
330
27E
100
AcDbEntity
  8
DATA
  6
Continuous
 62
     7
100
AcDbLine
 10
-95.200000000001
 20
-182.499999999998
 30
0.0
 11
-66.01666049834836
 21
-182.499999999998
 31
0.0
  0
ARC
  5
D9
330
27E
100
AcDbEntity
  8
DATA
  6
Continuous
 62
     7
100
AcDbCircle
 10
-35.02065066387061
 20
-150.3954979750868
 30
0.0
 40
122.7520071908408
100
AcDbArc
 50
195.1614319154289
 51
217.4281482257385
  0
ARC
  5
DA
330
27E
100
AcDbEntity
  8
DATA
  6
Continuous
 62
     7
100
AcDbCircle
 10
-36.32065066387064
 20
-150.3954979750868
 30
0.0
 40
122.7520071908408
100
AcDbArc
 50
195.1614319154289
 51
217.4281482257385
  0
ARC
  5
DB
330
27E
100
AcDbEntity
  8
DATA
  6
Continuous
 62
     7
100
AcDbCircle
 10
-214.9793493361284
 20
-150.3954979750868
 30
0.0
 40
122.7520071908384
100
AcDbArc
 50
322.5718517742605
 51
344.8385680845708
  0
ARC
  5
DC
330
27E
100
AcDbEntity
  8
DATA
  6
Continuous
 62
     7
100
AcDbCircle
 10
-213.6793493361285
 20
-150.3954979750868
 30
0.0
 40
122.7520071908385
100
AcDbArc
 50
322.5718517742606
 51
344.8385680845708
  0
LINE
  5
DD
330
27E
100
AcDbEntity
  8
DATA
  6
Continuous
 62
     7
100
AcDbLine
 10
-154.7456244586861
 20
-182.699999999998
 30
0.0
 11
-153.4456244586861
 21
-182.699999999998
 31
0.0
  0
LINE
  5
DE
330
27E
100
AcDbEntity
  8
DATA
  6
Continuous
 62
     7
100
AcDbLine
 10
-96.55437554131541
 20
-182.699999999998
 30
0.0
 11
-95.2543755413154
 21
-182.699999999998
 31
0.0
  0
LINE
  5
DF
330
27E
100
AcDbEntity
  8
DATA
  6
Continuous
 62
     7
100
AcDbLine
 10
-116.0472575434978
 20
-224.799999999998
 30
0.0
 11
-117.3472575434977
 21
-224.799999999998
 31
0.0
  0
LINE
  5
E0
330
27E
100
AcDbEntity
  8
DATA
  6
Continuous
 62
     7
100
AcDbLine
 10
-132.6527424565046
 20
-224.799999999998
 30
0.0
 11
-133.9527424565047
 21
-224.799999999998
 31
0.0
  0
ARC
  5
E1
330
27E
100
AcDbEntity
  8
DATA
  6
Continuous
 62
     7
100
AcDbCircle
 10
-189.4999999999994
 20
-184.999999999998
 30
0.0
 40
2.5
100
AcDbArc
 50
90.0
 51
174.7144343552146
  0
ARC
  5
E2
330
27E
100
AcDbEntity
  8
DATA
  6
Continuous
 62
     7
100
AcDbCircle
 10
-60.50000000000068
 20
-184.999999999998
 30
0.0
 40
2.500000000000042
100
AcDbArc
 50
0.0
 51
37.52324716618336
  0
ARC
  5
E3
330
27E
100
AcDbEntity
  8
DATA
  6
Continuous
 62
     7
100
AcDbCircle
 10
-189.4999999999994
 20
-222.499999999998
 30
0.0
 40
2.499999999999943
100
AcDbArc
 50
180.0
 51
270.0
  0
ARC
  5
E4
330
27E
100
AcDbEntity
  8
DATA
  6
Continuous
 62
     7
100
AcDbCircle
 10
-60.50000000000068
 20
-222.499999999998
 30
0.0
 40
2.5
100
AcDbArc
 50
270.0
 51
0.0
  0
TEXT
  5
E5
330
27E
100
AcDbEntity
  8
DATA
 62
     7
100
AcDbText
 10
-187.6871706990484
 20
-187.8907344390991
 30
0.0
 40
3.909218749999999
  1
SR 40
 41
0.7
 11
-187.6871706990484
 21
-183.9815156890991
 31
0.0
100
AcDbText
 73
     3
  0
TEXT
  5
E6
330
27E
100
AcDbEntity
  8
DATA
 62
     7
100
AcDbText
 10
-187.6427747950997
 20
-191.1322362259469
 30
0.0
 40
2.171788194444444
  1
STATIONARY RECEIVER
 41
0.7
 11
-187.6427747950997
 21
-188.9604480315025
 31
0.0
100
AcDbText
 73
     3
  0
LINE
  5
E7
330
27E
100
AcDbEntity
  8
DATA
  6
Continuous
 62
     7
100
AcDbLine
 10
-183.5310889132385
 20
-213.4198729787851
 30
0.0
 11
-220.9927893275103
 21
-148.5343045233425
 31
0.0
  0
LINE
  5
E8
330
27E
100
AcDbEntity
  8
DATA
  6
Continuous
 62
     7
100
AcDbLine
 10
-214.9306115010192
 20
-145.0343045233425
 30
0.0
 11
-177.4689110867475
 21
-209.9198729787851
 31
0.0
  0
ARC
  5
E9
330
27E
100
AcDbEntity
  8
DATA
  6
Continuous
 62
     7
100
AcDbCircle
 10
-177.9999999999932
 20
-215.9999999977071
 30
0.0
 40
7.499999999999745
100
AcDbArc
 50
147.8181392846541
 51
92.18186071534431
  0
ARC
  5
EA
330
27E
100
AcDbEntity
  8
DATA
  6
Continuous
 62
     7
100
AcDbCircle
 10
-177.9999999999803
 20
-215.9999999977294
 30
0.0
 40
80.00000000002552
100
AcDbArc
 50
117.4925092964135
 51
122.5074907035863
  0
ARC
  5
EB
330
27E
100
AcDbEntity
  8
DATA
  6
Continuous
 62
     7
100
AcDbCircle
 10
-177.999999999981
 20
-215.9999999977284
 30
0.0
 40
3.349999999998853
100
AcDbArc
 50
137.3679799118858
 51
102.6320200881061
  0
LINE
  5
EC
330
27E
100
AcDbEntity
  8
DATA
  6
Continuous
 62
     7
100
AcDbLine
 10
-177.4689110867475
 20
-209.9198729787851
 30
0.0
 11
-179.6339745962086
 21
-211.1698729787851
 31
0.0
  0
LINE
  5
ED
330
27E
100
AcDbEntity
  8
DATA
  6
Continuous
 62
     7
100
AcDbLine
 10
-181.3660254037774
 20
-212.1698729787851
 30
0.0
 11
-183.5310889132385
 21
-213.4198729787851
 31
0.0
  0
LINE
  5
EE
330
27E
100
AcDbEntity
  8
DATA
  6
Continuous
 62
     7
100
AcDbLine
 10
-177.2673931758899
 20
-219.2689122390255
 30
0.0
 11
-181.3660254037774
 21
-212.169872978785
 31
0.0
  0
LINE
  5
EF
330
27E
100
AcDbEntity
  8
DATA
  6
Continuous
 62
     7
100
AcDbLine
 10
-179.6339745962086
 20
-211.169872978785
 30
0.0
 11
-175.535342368321
 21
-218.2689122390255
 31
0.0
  0
LINE
  5
F0
330
27E
100
AcDbEntity
  8
DATA
  6
Continuous
 62
     7
100
AcDbLine
 10
-218.5310889132385
 20
-152.7980947138743
 30
0.0
 11
-212.4689110867475
 21
-149.2980947138744
 31
0.0
  0
LINE
  5
F1
330
27E
100
AcDbEntity
  8
DATA
  6
Continuous
 62
     7
100
AcDbLine
 10
-187.5310889132385
 20
-206.4916697485096
 30
0.0
 11
-181.4689110867475
 21
-202.9916697485096
 31
0.0
  0
LINE
  5
F2
330
27E
100
AcDbEntity
  8
DATA
  6
Continuous
 62
     7
100
AcDbLine
 10
-187.3810889132385
 20
-206.7514773696449
 30
0.0
 11
-181.3189110867475
 21
-203.2514773696449
 31
0.0
  0
LINE
  5
F3
330
27E
100
AcDbEntity
  8
DATA
  6
Continuous
 62
     7
100
AcDbLine
 10
-186.0310889132385
 20
-209.0897459598628
 30
0.0
 11
-179.9689110867475
 21
-205.5897459598628
 31
0.0
  0
LINE
  5
F4
330
27E
100
AcDbEntity
  8
DATA
  6
Continuous
 62
     7
100
AcDbLine
 10
-185.8810889132385
 20
-209.3495535809983
 30
0.0
 11
-179.8189110867475
 21
-205.8495535809983
 31
0.0
  0
LINE
  5
F5
330
27E
100
AcDbEntity
  8
DATA
  6
Continuous
 62
     7
100
AcDbLine
 10
-63.96891108675291
 20
-192.9198729810496
 30
0.0
 11
-26.50721067248111
 21
-128.034304525607
 31
0.0
  0
LINE
  5
F6
330
27E
100
AcDbEntity
  8
DATA
  6
Continuous
 62
     7
100
AcDbLine
 10
-32.56938849897216
 20
-124.5343045256069
 30
0.0
 11
-70.03108891324398
 21
-189.4198729810495
 31
0.0
  0
ARC
  5
F7
330
27E
100
AcDbEntity
  8
DATA
  6
Continuous
 62
     7
100
AcDbCircle
 10
-69.49999999999822
 20
-195.4999999999716
 30
0.0
 40
7.499999999999722
100
AcDbArc
 50
87.81813928465558
 51
32.18186071534571
  0
ARC
  5
F8
330
27E
100
AcDbEntity
  8
DATA
  6
Continuous
 62
     7
100
AcDbCircle
 10
-69.50000000001113
 20
-195.4999999999938
 30
0.0
 40
80.00000000002556
100
AcDbArc
 50
57.49250929641352
 51
62.50749070358638
  0
ARC
  5
F9
330
27E
100
AcDbEntity
  8
DATA
  6
Continuous
 62
     7
100
AcDbCircle
 10
-69.50000000001046
 20
-195.499999999993
 30
0.0
 40
3.349999999998866
100
AcDbArc
 50
77.36797991189314
 51
42.63202008811354
  0
LINE
  5
FA
330
27E
100
AcDbEntity
  8
DATA
  6
Continuous
 62
     7
100
AcDbLine
 10
-70.03108891324398
 20
-189.4198729810495
 30
0.0
 11
-67.86602540378286
 21
-190.6698729810495
 31
0.0
  0
LINE
  5
FB
330
27E
100
AcDbEntity
  8
DATA
  6
Continuous
 62
     7
100
AcDbLine
 10
-66.13397459621395
 20
-191.6698729810495
 30
0.0
 11
-63.96891108675291
 21
-192.9198729810496
 31
0.0
  0
LINE
  5
FC
330
27E
100
AcDbEntity
  8
DATA
  6
Continuous
 62
     7
100
AcDbLine
 10
-70.23260682410152
 20
-198.76891224129
 30
0.0
 11
-66.13397459621395
 21
-191.6698729810495
 31
0.0
  0
LINE
  5
FD
330
27E
100
AcDbEntity
  8
DATA
  6
Continuous
 62
     7
100
AcDbLine
 10
-67.86602540378286
 20
-190.6698729810495
 30
0.0
 11
-71.96465763167042
 21
-197.76891224129
 31
0.0
  0
LINE
  5
FE
330
27E
100
AcDbEntity
  8
DATA
  6
Continuous
 62
     7
100
AcDbLine
 10
-28.96891108675283
 20
-132.2980947161388
 30
0.0
 11
-35.03108891324382
 21
-128.7980947161389
 31
0.0
  0
LINE
  5
FF
330
27E
100
AcDbEntity
  8
DATA
  6
Continuous
 62
     7
100
AcDbLine
 10
-59.96891108675286
 20
-185.991669750774
 30
0.0
 11
-66.03108891324389
 21
-182.491669750774
 31
0.0
  0
LINE
  5
100
330
27E
100
AcDbEntity
  8
DATA
  6
Continuous
 62
     7
100
AcDbLine
 10
-60.1189110867529
 20
-186.2514773719094
 30
0.0
 11
-66.18108891324393
 21
-182.7514773719094
 31
0.0
  0
LINE
  5
101
330
27E
100
AcDbEntity
  8
DATA
  6
Continuous
 62
     7
100
AcDbLine
 10
-61.46891108675288
 20
-188.5897459621273
 30
0.0
 11
-67.53108891324391
 21
-185.0897459621274
 31
0.0
  0
LINE
  5
102
330
27E
100
AcDbEntity
  8
DATA
  6
Continuous
 62
     7
100
AcDbLine
 10
-61.61891108675291
 20
-188.8495535832627
 30
0.0
 11
-67.68108891324394
 21
-185.3495535832627
 31
0.0
  0
TEXT
  5
103
330
27E
100
AcDbEntity
  8
DATA
 62
     7
100
AcDbText
 10
-70.72698892910743
 20
-222.6399856835285
 30
0.0
 40
3.909218749999999
  1
PRO2
 41
0.7
 11
-70.72698892910743
 21
-218.7307669335285
 31
0.0
100
AcDbText
 73
     3
  0
TEXT
  5
104
330
27E
100
AcDbEntity
  8
DATA
 62
     7
100
AcDbText
 10
-77.45580336742238
 20
-221.2377379737369
 30
0.0
 40
2.171788194444444
  1
MINI
 41
0.7
 11
-77.45580336742238
 21
-219.0659497792925
 31
0.0
100
AcDbText
 73
     3
  0
LINE
  5
105
330
27E
100
AcDbEntity
  8
DATA
  6
Continuous
 62
     7
100
AcDbLine
 10
-77.83435829937194
 20
-221.8378988505443
 30
0.0
 11
-71.89333732196073
 21
-221.8378988505443
 31
0.0
  0
CIRCLE
  5
106
330
27E
100
AcDbEntity
  8
DATA
  6
Continuous
 62
     7
100
AcDbCircle
 10
-133.2500000000012
 20
-190.999999999998
 30
0.0
 40
2.75
  0
CIRCLE
  5
107
330
27E
100
AcDbEntity
  8
DATA
  6
Continuous
 62
     7
100
AcDbCircle
 10
-116.7500000000012
 20
-190.999999999998
 30
0.0
 40
2.75
  0
CIRCLE
  5
108
330
27E
100
AcDbEntity
  8
DATA
  6
Continuous
 62
     7
100
AcDbCircle
 10
-133.2500000000012
 20
-207.999999999998
 30
0.0
 40
2.75
  0
CIRCLE
  5
109
330
27E
100
AcDbEntity
  8
DATA
  6
Continuous
 62
     7
100
AcDbCircle
 10
-116.7500000000012
 20
-207.999999999998
 30
0.0
 40
2.75
  0
TEXT
  5
10A
330
27E
100
AcDbEntity
  8
DATA
 62
     7
100
AcDbText
 10
-138.6894157113839
 20
-187.2463351806061
 30
0.0
 40
2.388967013888888
  1
AF CLIP
 41
0.7
 11
-138.6894157113839
 21
-184.8573681667172
 31
0.0
100
AcDbText
 73
     3
  0
TEXT
  5
10B
330
27E
100
AcDbEntity
  8
DATA
 62
     7
100
AcDbText
 10
-120.6215838888319
 20
-187.2463351806061
 30
0.0
 40
2.388967013888888
  1
RF OK
 41
0.7
 11
-120.6215838888319
 21
-184.8573681667172
 31
0.0
100
AcDbText
 73
     3
  0
TEXT
  5
10C
330
27E
100
AcDbEntity
  8
DATA
 62
     7
100
AcDbText
 10
-137.1562699275673
 20
-214.6266080096466
 30
0.0
 40
2.388967013888888
  1
RF OK
 41
0.7
 11
-137.1562699275673
 21
-212.2376409957577
 31
0.0
100
AcDbText
 73
     3
  0
TEXT
  5
10D
330
27E
100
AcDbEntity
  8
DATA
 62
     7
100
AcDbText
 10
-122.3250792041834
 20
-214.6266080096466
 30
0.0
 40
2.388967013888888
  1
AF CLIP
 41
0.7
 11
-122.3250792041834
 21
-212.2376409957577
 31
0.0
100
AcDbText
 73
     3
  0
TEXT
  5
10E
330
27E
100
AcDbEntity
  8
DATA
 62
     7
100
AcDbText
 10
-125.7523105295563
 20
-209.1317292702873
 30
0.0
 40
2.388967013888888
  1
1
 41
0.7
 11
-125.7523105295563
 21
-206.7427622563984
 31
0.0
100
AcDbText
 73
     3
  0
TEXT
  5
10F
330
27E
100
AcDbEntity
  8
DATA
 62
     7
100
AcDbText
 10
-125.7523105295563
 20
-192.2041820674398
 30
0.0
 40
2.388967013888888
  1
2
 41
0.7
 11
-125.7523105295563
 21
-189.8152150535509
 31
0.0
100
AcDbText
 73
     3
  0
CIRCLE
  5
110
330
27E
100
AcDbEntity
  8
DATA
  6
Continuous
 62
     7
100
AcDbCircle
 10
-88.00000000000066
 20
-190.999999999998
 30
0.0
 40
7.5
  0
CIRCLE
  5
111
330
27E
100
AcDbEntity
  8
DATA
  6
Continuous
 62
     7
100
AcDbCircle
 10
-88.00000000000066
 20
-190.999999999998
 30
0.0
 40
5.5
  0
CIRCLE
  5
112
330
27E
100
AcDbEntity
  8
DATA
  6
Continuous
 62
     7
100
AcDbCircle
 10
-88.00000000000066
 20
-190.999999999998
 30
0.0
 40
4.5
  0
LINE
  5
113
330
27E
100
AcDbEntity
  8
DATA
  6
Continuous
 62
     7
100
AcDbLine
 10
-112.8075554470517
 20
-190.999999999998
 30
0.0
 11
-103.8075554470517
 21
-190.999999999998
 31
0.0
  0
LINE
  5
114
330
27E
100
AcDbEntity
  8
DATA
  6
Continuous
 62
     7
100
AcDbLine
 10
-90.2500000000006
 20
-193.249999999998
 30
0.0
 11
-91.18198051534012
 21
-194.1819805153375
 31
0.0
  0
TEXT
  5
115
330
27E
100
AcDbEntity
  8
DATA
 62
     7
100
AcDbText
 10
-92.18927690183495
 20
-202.2756895896033
 30
0.0
 40
2.171788194444444
  1
VOLUME
 41
0.7
 11
-92.18927690183495
 21
-200.1039013951589
 31
0.0
100
AcDbText
 73
     3
  0
CIRCLE
  5
116
330
27E
100
AcDbEntity
  8
DATA
  6
Continuous
 62
     7
100
AcDbCircle
 10
-90.00000000000065
 20
-211.999999999998
 30
0.0
 40
6.5
  0
CIRCLE
  5
117
330
27E
100
AcDbEntity
  8
DATA
  6
Continuous
 62
     7
100
AcDbCircle
 10
-90.00000000000065
 20
-211.999999999998
 30
0.0
 40
4.0
  0
TEXT
  5
118
330
27E
100
AcDbEntity
  8
DATA
 62
     7
100
AcDbText
 10
-83.20394239592612
 20
-208.5449516625109
 30
0.0
 40
2.171788194444444
  1
ON/OFF
 41
0.7
 11
-83.20394239592612
 21
-206.3731634680664
 31
0.0
100
AcDbText
 73
     3
  0
CIRCLE
  5
119
330
27E
100
AcDbEntity
  8
DATA
  6
Continuous
 62
     7
100
AcDbCircle
 10
-160.4374999999884
 20
-207.999999999998
 30
0.0
 40
7.5
  0
CIRCLE
  5
11A
330
27E
100
AcDbEntity
  8
DATA
  6
Continuous
 62
     7
100
AcDbCircle
 10
-160.4374999999884
 20
-207.999999999998
 30
0.0
 40
5.5
  0
CIRCLE
  5
11B
330
27E
100
AcDbEntity
  8
DATA
  6
Continuous
 62
     7
100
AcDbCircle
 10
-160.4374999999884
 20
-207.999999999998
 30
0.0
 40
4.5
  0
LINE
  5
11C
330
27E
100
AcDbEntity
  8
DATA
  6
Continuous
 62
     7
100
AcDbLine
 10
-162.6874999999884
 20
-210.249999999998
 30
0.0
 11
-163.6194805153279
 21
-211.1819805153375
 31
0.0
  0
LINE
  5
11D
330
27E
100
AcDbEntity
  8
DATA
  6
Continuous
 62
     7
100
AcDbLine
 10
-145.9662633830174
 20
-207.999999999998
 30
0.0
 11
-151.9784842121934
 21
-207.999999999998
 31
0.0
  0
TEXT
  5
11E
330
27E
100
AcDbEntity
  8
DATA
 62
     7
100
AcDbText
 10
-164.8706376459853
 20
-219.356184807358
 30
0.0
 40
2.171788194444444
  1
VOLUME
 41
0.7
 11
-164.8706376459853
 21
-217.1843966129135
 31
0.0
100
AcDbText
 73
     3
  0
LINE
  5
11F
330
27E
100
AcDbEntity
  8
DATA
  6
Continuous
 62
     7
100
AcDbLine
 10
-191.9999999999994
 20
-72.0
 30
0.0
 11
-191.9999999999994
 21
57.0
 31
0.0
  0
LINE
  5
120
330
27E
100
AcDbEntity
  8
DATA
  6
Continuous
 62
     7
100
AcDbLine
 10
-58.00000000000064
 20
-72.0
 30
0.0
 11
-58.00000000000064
 21
57.00000000000002
 31
0.0
  0
LINE
  5
121
330
27E
100
AcDbEntity
  8
DATA
  6
Continuous
 62
     7
100
AcDbLine
 10
-191.9999999999994
 20
57.0
 30
0.0
 11
-58.00000000000064
 21
57.0
 31
0.0
  0
LINE
  5
122
330
27E
100
AcDbEntity
  8
DATA
  6
Continuous
 62
     7
100
AcDbLine
 10
-191.9999999999994
 20
-55.0
 30
0.0
 11
-58.00000000000064
 21
-55.0
 31
0.0
  0
LINE
  5
123
330
27E
100
AcDbEntity
  8
DATA
  6
Continuous
 62
     7
100
AcDbLine
 10
-153.5
 20
57.00000000000002
 30
0.0
 11
-153.5
 21
-69.99999999999997
 31
0.0
  0
LINE
  5
124
330
27E
100
AcDbEntity
  8
DATA
  6
Continuous
 62
     7
100
AcDbLine
 10
-96.49999999999998
 20
57.00000000000002
 30
0.0
 11
-96.49999999999998
 21
-70.00000000000001
 31
0.0
  0
LINE
  5
125
330
27E
100
AcDbEntity
  8
DATA
  6
Continuous
 62
     7
100
AcDbLine
 10
-155.0
 20
57.00000000000002
 30
0.0
 11
-155.0
 21
-69.5829617138644
 31
0.0
  0
LINE
  5
126
330
27E
100
AcDbEntity
  8
DATA
  6
Continuous
 62
     7
100
AcDbLine
 10
-94.99999999999998
 20
57.00000000000002
 30
0.0
 11
-94.99999999999998
 21
-69.58296171386445
 31
0.0
  0
ARC
  5
127
330
27E
100
AcDbEntity
  8
DATA
  6
Continuous
 62
     7
100
AcDbCircle
 10
-125.0
 20
8.724999999999885
 30
0.0
 40
83.72499999999989
100
AcDbArc
 50
250.0987466240968
 51
289.9012533759032
  0
ARC
  5
128
330
27E
100
AcDbEntity
  8
DATA
  6
Continuous
 62
     7
100
AcDbCircle
 10
-197.3369565215714
 20
-224.7663043467494
 30
0.0
 40
160.8548653856165
100
AcDbArc
 50
74.1854313311369
 51
88.0986511416061
  0
ARC
  5
129
330
27E
100
AcDbEntity
  8
DATA
  6
Continuous
 62
     7
100
AcDbCircle
 10
-52.66304347842858
 20
-224.7663043467494
 30
0.0
 40
160.8548653856165
100
AcDbArc
 50
91.90134885839388
 51
105.8145686688631
  0
ARC
  5
12A
330
27E
100
AcDbEntity
  8
DATA
  6
Continuous
 62
     7
100
AcDbCircle
 10
-125.0
 20
674.6666666666522
 30
0.0
 40
749.6666666666525
100
AcDbArc
 50
264.8724595770699
 51
265.6891971092083
  0
ARC
  5
12B
330
27E
100
AcDbEntity
  8
DATA
  6
Continuous
 62
     7
100
AcDbCircle
 10
-125.0
 20
674.6666666666522
 30
0.0
 40
749.6666666666524
100
AcDbArc
 50
266.202553271983
 51
272.3699543162168
  0
ARC
  5
12C
330
27E
100
AcDbEntity
  8
DATA
  6
Continuous
 62
     7
100
AcDbCircle
 10
-125.0
 20
674.6666666666522
 30
0.0
 40
749.6666666666524
100
AcDbArc
 50
273.173398368048
 51
273.9889596156324
  0
ARC
  5
12D
330
27E
100
AcDbEntity
  8
DATA
  6
Continuous
 62
     7
100
AcDbCircle
 10
-125.0
 20
674.6666666666522
 30
0.0
 40
749.6666666666524
100
AcDbArc
 50
274.502440335374
 51
275.1275404229301
  0
ARC
  5
12E
330
27E
100
AcDbEntity
  8
DATA
  6
Continuous
 62
     7
100
AcDbCircle
 10
-144.2160300458381
 20
-63.71603004588791
 30
0.0
 40
11.21072595749106
100
AcDbArc
 50
214.0925928269273
 51
258.244789742048
  0
ARC
  5
12F
330
27E
100
AcDbEntity
  8
DATA
  6
Continuous
 62
     7
100
AcDbCircle
 10
-145.6734698404393
 20
-64.62697144950524
 30
0.0
 40
10.56153418389664
100
AcDbArc
 50
207.9855641291421
 51
250.9823217206184
  0
ARC
  5
130
330
27E
100
AcDbEntity
  8
DATA
  6
Continuous
 62
     7
100
AcDbCircle
 10
-105.7839699541619
 20
-63.71603004588791
 30
0.0
 40
11.21072595749103
100
AcDbArc
 50
281.755210257952
 51
325.9074071730727
  0
ARC
  5
131
330
27E
100
AcDbEntity
  8
DATA
  6
Continuous
 62
     7
100
AcDbCircle
 10
-104.3265301595607
 20
-64.62697144950524
 30
0.0
 40
10.56153418389664
100
AcDbArc
 50
289.0176782793817
 51
332.0144358708579
  0
LINE
  5
132
330
27E
100
AcDbEntity
  8
DATA
  6
Continuous
 62
     7
100
AcDbLine
 10
-164.4374999925379
 20
-78.0
 30
0.0
 11
-156.437500007439
 21
-78.0
 31
0.0
  0
LINE
  5
133
330
27E
100
AcDbEntity
  8
DATA
  6
Continuous
 62
     7
100
AcDbLine
 10
-164.9374999999884
 20
-77.49999999254942
 30
0.0
 11
-164.9374999999884
 21
-73.93543539080278
 31
0.0
  0
LINE
  5
134
330
27E
100
AcDbEntity
  8
DATA
  6
Continuous
 62
     7
100
AcDbLine
 10
-155.9374999999884
 20
-77.49999999254942
 30
0.0
 11
-155.9374999999884
 21
-74.36135831294766
 31
0.0
  0
LINE
  5
135
330
27E
100
AcDbEntity
  8
DATA
  6
Continuous
 62
     7
100
AcDbLine
 10
-91.99999999255007
 20
-76.99999999999999
 30
0.0
 11
-84.00000000745121
 21
-76.99999999999999
 31
0.0
  0
LINE
  5
136
330
27E
100
AcDbEntity
  8
DATA
  6
Continuous
 62
     7
100
AcDbLine
 10
-92.50000000000065
 20
-76.49999999254941
 30
0.0
 11
-92.50000000000065
 21
-74.29518891151371
 31
0.0
  0
LINE
  5
137
330
27E
100
AcDbEntity
  8
DATA
  6
Continuous
 62
     7
100
AcDbLine
 10
-83.50000000000063
 20
-76.49999999254941
 30
0.0
 11
-83.50000000000063
 21
-73.85044142847299
 31
0.0
  0
LINE
  5
138
330
27E
100
AcDbEntity
  8
DATA
  6
Continuous
 62
     7
100
AcDbLine
 10
-94.00000000000066
 20
-76.49999999254942
 30
0.0
 11
-94.00000000000066
 21
-74.35877423044408
 31
0.0
  0
LINE
  5
139
330
27E
100
AcDbEntity
  8
DATA
  6
Continuous
 62
     7
100
AcDbLine
 10
-93.49999999255004
 20
-77.00000000000001
 30
0.0
 11
-92.09999999995014
 21
-77.00000000000001
 31
0.0
  0
LINE
  5
13A
330
27E
100
AcDbEntity
  8
DATA
  6
Continuous
 62
     7
100
AcDbLine
 10
-217.5453020266437
 20
-84.0
 30
0.0
 11
-177.1499999999998
 21
-84.0
 31
0.0
  0
LINE
  5
13B
330
27E
100
AcDbEntity
  8
DATA
  6
Continuous
 62
     7
100
AcDbLine
 10
-181.3499999999998
 20
-68.35808383233153
 30
0.0
 11
-181.3499999999998
 21
-74.72873755667888
 31
0.0
  0
LINE
  5
13C
330
27E
100
AcDbEntity
  8
DATA
  6
Continuous
 62
     7
100
AcDbLine
 10
-174.6499999999998
 20
-69.0
 30
0.0
 11
-174.6499999999998
 21
-74.72873755667888
 31
0.0
  0
LINE
  5
13D
330
27E
100
AcDbEntity
  8
DATA
  6
Continuous
 62
     7
100
AcDbLine
 10
-174.6499999999998
 20
-77.0
 30
0.0
 11
-174.6499999999998
 21
-81.5
 31
0.0
  0
LINE
  5
13E
330
27E
100
AcDbEntity
  8
DATA
  6
Continuous
 62
     7
100
AcDbLine
 10
127.2936929554721
 20
-224.999999999998
 30
0.0
 11
256.7936929554721
 21
-224.999999999998
 31
0.0
  0
LINE
  5
13F
330
27E
100
AcDbEntity
  8
DATA
  6
Continuous
 62
     7
100
AcDbLine
 10
127.2936929554721
 20
-182.499999999998
 30
0.0
 11
137.6249836509991
 21
-182.499999999998
 31
0.0
  0
LINE
  5
140
330
27E
100
AcDbEntity
  8
DATA
  6
Continuous
 62
     7
100
AcDbLine
 10
256.7936929554721
 20
-224.999999999998
 30
0.0
 11
256.7936929554721
 21
-182.499999999998
 31
0.0
  0
LINE
  5
141
330
27E
100
AcDbEntity
  8
DATA
  6
Continuous
 62
     7
100
AcDbLine
 10
124.7936929554721
 20
-222.499999999998
 30
0.0
 11
124.7936929554721
 21
-215.999999999998
 31
0.0
  0
LINE
  5
142
330
27E
100
AcDbEntity
  8
DATA
  6
Continuous
 62
     7
100
AcDbLine
 10
124.7936929554721
 20
-207.999999999998
 30
0.0
 11
124.7936929554721
 21
-184.999999999998
 31
0.0
  0
LINE
  5
143
330
27E
100
AcDbEntity
  8
DATA
  6
Continuous
 62
     7
100
AcDbLine
 10
-191.9999999999994
 20
140.0000000000001
 30
0.0
 11
-191.9999999999994
 21
102.5000000000001
 31
0.0
  0
LINE
  5
144
330
27E
100
AcDbEntity
  8
DATA
  6
Continuous
 62
     7
100
AcDbLine
 10
-58.00000000000064
 20
102.5000000000001
 30
0.0
 11
-58.00000000000064
 21
140.0000000000001
 31
0.0
  0
LINE
  5
145
330
27E
100
AcDbEntity
  8
DATA
  6
Continuous
 62
     7
100
AcDbLine
 10
-189.4999999999994
 20
100.0000000000001
 30
0.0
 11
-96.09999999995014
 21
100.0000000000001
 31
0.0
  0
LINE
  5
146
330
27E
100
AcDbEntity
  8
DATA
  6
Continuous
 62
     7
100
AcDbLine
 10
-96.09999999995014
 20
100.0000000000001
 30
0.0
 11
-60.50000000000068
 21
100.0000000000001
 31
0.0
  0
ARC
  5
147
330
27E
100
AcDbEntity
  8
DATA
  6
Continuous
 62
     7
100
AcDbCircle
 10
-189.4999999999994
 20
102.5000000000001
 30
0.0
 40
2.5
100
AcDbArc
 50
180.0
 51
270.0
  0
ARC
  5
148
330
27E
100
AcDbEntity
  8
DATA
  6
Continuous
 62
     7
100
AcDbCircle
 10
-60.50000000000068
 20
102.5000000000001
 30
0.0
 40
2.500000000000042
100
AcDbArc
 50
270.0
 51
0.0
  0
ARC
  5
149
330
27E
100
AcDbEntity
  8
DATA
  6
Continuous
 62
     7
100
AcDbCircle
 10
-189.4999999999994
 20
140.0000000000001
 30
0.0
 40
2.5
100
AcDbArc
 50
90.0
 51
180.0
  0
ARC
  5
14A
330
27E
100
AcDbEntity
  8
DATA
  6
Continuous
 62
     7
100
AcDbCircle
 10
-60.50000000000071
 20
140.0000000000001
 30
0.0
 40
2.500000000000042
100
AcDbArc
 50
0.0
 51
90.0
  0
LINE
  5
14B
330
27E
100
AcDbEntity
  8
DATA
  6
Continuous
 62
     7
100
AcDbLine
 10
-185.4999999999994
 20
109.7000000000001
 30
0.0
 11
-117.9507575177953
 21
109.7000000000001
 31
0.0
  0
LINE
  5
14C
330
27E
100
AcDbEntity
  8
DATA
  6
Continuous
 62
     7
100
AcDbLine
 10
-108.049242482206
 20
109.7000000000001
 30
0.0
 11
-64.50000000000061
 21
109.7000000000001
 31
0.0
  0
LINE
  5
14D
330
27E
100
AcDbEntity
  8
DATA
  6
Continuous
 62
     7
100
AcDbLine
 10
-185.4999999999994
 20
109.7000000000001
 30
0.0
 11
-185.4999999999994
 21
142.5000000000001
 31
0.0
  0
LINE
  5
14E
330
27E
100
AcDbEntity
  8
DATA
  6
Continuous
 62
     7
100
AcDbLine
 10
-64.50000000000064
 20
109.7000000000001
 30
0.0
 11
-64.50000000000064
 21
142.5000000000001
 31
0.0
  0
LINE
  5
14F
330
27E
100
AcDbEntity
  8
DATA
  6
Continuous
 62
     7
100
AcDbLine
 10
-189.4999999999994
 20
142.5000000000001
 30
0.0
 11
-168.4999999999994
 21
142.5000000000001
 31
0.0
  0
LINE
  5
150
330
27E
100
AcDbEntity
  8
DATA
  6
Continuous
 62
     7
100
AcDbLine
 10
-81.50000000000066
 20
142.5000000000001
 30
0.0
 11
-60.49999953830512
 21
142.5000000000001
 31
0.0
  0
LINE
  5
151
330
27E
100
AcDbEntity
  8
DATA
  6
Continuous
 62
     7
100
AcDbLine
 10
-185.4999999999994
 20
141.5000000000001
 30
0.0
 11
-64.50000000000065
 21
141.5000000000001
 31
0.0
  0
LINE
  5
152
330
27E
100
AcDbEntity
  8
DATA
  6
Continuous
 62
     7
100
AcDbLine
 10
-185.4999999999994
 20
109.7000000000001
 30
0.0
 11
-191.2677669529658
 21
100.7322330470337
 31
0.0
  0
LINE
  5
153
330
27E
100
AcDbEntity
  8
DATA
  6
Continuous
 62
     7
100
AcDbLine
 10
-64.50000000000064
 20
109.7000000000001
 30
0.0
 11
-58.73223304703429
 21
100.7322330470337
 31
0.0
  0
LINE
  5
154
330
27E
100
AcDbEntity
  8
DATA
  6
Continuous
 62
     7
100
AcDbLine
 10
-168.4999999999994
 20
141.5000000000001
 30
0.0
 11
-168.4999999999994
 21
142.5000000000001
 31
0.0
  0
LINE
  5
155
330
27E
100
AcDbEntity
  8
DATA
  6
Continuous
 62
     7
100
AcDbLine
 10
-81.50000000000067
 20
141.5000000000001
 30
0.0
 11
-81.50000000000067
 21
142.5000000000001
 31
0.0
  0
CIRCLE
  5
156
330
27E
100
AcDbEntity
  8
DATA
  6
Continuous
 62
     7
100
AcDbCircle
 10
-113.0000000000006
 20
109.0000000000001
 30
0.0
 40
5.0
  0
CIRCLE
  5
157
330
27E
100
AcDbEntity
  8
DATA
  6
Continuous
 62
     7
100
AcDbCircle
 10
-113.0000000000006
 20
109.0000000000001
 30
0.0
 40
3.150000000000005
  0
CIRCLE
  5
158
330
27E
100
AcDbEntity
  8
DATA
  6
Continuous
 62
     7
100
AcDbCircle
 10
-133.0000000000006
 20
127.0000000000001
 30
0.0
 40
5.0
  0
CIRCLE
  5
159
330
27E
100
AcDbEntity
  8
DATA
  6
Continuous
 62
     7
100
AcDbCircle
 10
-133.0000000000006
 20
127.0000000000001
 30
0.0
 40
3.149999999999977
  0
CIRCLE
  5
15A
330
27E
100
AcDbEntity
  8
DATA
  6
Continuous
 62
     7
100
AcDbCircle
 10
-90.00000000000065
 20
127.0000000000001
 30
0.0
 40
0.9000000000000056
  0
CIRCLE
  5
15B
330
27E
100
AcDbEntity
  8
DATA
  6
Continuous
 62
     7
100
AcDbCircle
 10
-90.00000000000065
 20
127.0000000000001
 30
0.0
 40
3.0
  0
LINE
  5
15C
330
27E
100
AcDbEntity
  8
DATA
  6
Continuous
 62
     7
100
AcDbLine
 10
-94.75000000000065
 20
123.0000000000001
 30
0.0
 11
-94.75000000000065
 21
133.5000000000001
 31
0.0
  0
LINE
  5
15D
330
27E
100
AcDbEntity
  8
DATA
  6
Continuous
 62
     7
100
AcDbLine
 10
-85.25000000000064
 20
133.5000000000001
 30
0.0
 11
-85.25000000000064
 21
123.0000000000001
 31
0.0
  0
LINE
  5
15E
330
27E
100
AcDbEntity
  8
DATA
  6
Continuous
 62
     7
100
AcDbLine
 10
-85.25000000000064
 20
123.0000000000001
 30
0.0
 11
-94.75000000000065
 21
123.0000000000001
 31
0.0
  0
LINE
  5
15F
330
27E
100
AcDbEntity
  8
DATA
  6
Continuous
 62
     7
100
AcDbLine
 10
-85.25000000000064
 20
133.5000000000001
 30
0.0
 11
-94.75000000000065
 21
133.5000000000001
 31
0.0
  0
LINE
  5
160
330
27E
100
AcDbEntity
  8
DATA
  6
Continuous
 62
     7
100
AcDbLine
 10
-104.0000000000006
 20
109.7000000000001
 30
0.0
 11
-104.0000000000006
 21
140.0000000000001
 31
0.0
  0
LINE
  5
161
330
27E
100
AcDbEntity
  8
DATA
  6
Continuous
 62
     7
100
AcDbLine
 10
-144.0000000000006
 20
109.7000000000001
 30
0.0
 11
-144.0000000000006
 21
140.0000000000001
 31
0.0
  0
LINE
  5
162
330
27E
100
AcDbEntity
  8
DATA
  6
Continuous
 62
     7
100
AcDbLine
 10
-142.5000000000006
 20
117.7555187839449
 30
0.0
 11
-105.5000000000006
 21
117.7555187839449
 31
0.0
  0
TEXT
  5
163
330
27E
100
AcDbEntity
  8
DATA
 62
     7
100
AcDbText
 10
-69.20791386862241
 20
125.6471496948877
 30
0.0
 40
2.388967013888888
  1
DC ONLY
 50
180.0
 41
0.7
 11
-69.20791386862241
 21
123.2581826809989
 31
0.0
100
AcDbText
 73
     3
  0
TEXT
  5
164
330
27E
100
AcDbEntity
  8
DATA
 62
     7
100
AcDbText
 10
-67.31499999995013
 20
129.1457656618304
 30
0.0
 40
2.388967013888888
  1
12V 300mA
 50
180.0
 41
0.7
 11
-67.31499999995013
 21
126.7567986479415
 31
0.0
100
AcDbText
 73
     3
  0
CIRCLE
  5
165
330
27E
100
AcDbEntity
  8
DATA
  6
Continuous
 62
     7
100
AcDbCircle
 10
-70.09999999995014
 20
131.829342883905
 30
0.0
 40
0.7999999999999972
  0
ARC
  5
166
330
27E
100
AcDbEntity
  8
DATA
  6
Continuous
 62
     7
100
AcDbCircle
 10
-70.0999999999502
 20
131.829342883905
 30
0.0
 40
1.249999999999938
100
AcDbArc
 50
233.2469691929969
 51
126.7530308070023
  0
LINE
  5
167
330
27E
100
AcDbEntity
  8
DATA
  6
Continuous
 62
     7
100
AcDbLine
 10
-70.89999999995014
 20
131.829342883905
 30
0.0
 11
-71.69999999995013
 21
131.829342883905
 31
0.0
  0
LINE
  5
168
330
27E
100
AcDbEntity
  8
DATA
  6
Continuous
 62
     7
100
AcDbLine
 10
-72.16108476762524
 20
131.829342883905
 30
0.0
 11
-73.20108476762526
 21
131.829342883905
 31
0.0
  0
LINE
  5
169
330
27E
100
AcDbEntity
  8
DATA
  6
Continuous
 62
     7
100
AcDbLine
 10
-72.68108476762527
 20
132.349342883905
 30
0.0
 11
-72.68108476762527
 21
131.3093428839049
 31
0.0
  0
LINE
  5
16A
330
27E
100
AcDbEntity
  8
DATA
  6
Continuous
 62
     7
100
AcDbLine
 10
-74.39999999995014
 20
131.1747485390945
 30
0.0
 11
-79.79999999994994
 21
131.1747485390945
 31
0.0
  0
LINE
  5
16B
330
27E
100
AcDbEntity
  8
DATA
  6
Continuous
 62
     7
100
AcDbLine
 10
-79.64858136203819
 20
132.5747485390946
 30
0.0
 11
-78.54858136203837
 21
132.5747485390946
 31
0.0
  0
LINE
  5
16C
330
27E
100
AcDbEntity
  8
DATA
  6
Continuous
 62
     7
100
AcDbLine
 10
-77.64858136203819
 20
132.5747485390946
 30
0.0
 11
-76.54858136203838
 21
132.5747485390946
 31
0.0
  0
LINE
  5
16D
330
27E
100
AcDbEntity
  8
DATA
  6
Continuous
 62
     7
100
AcDbLine
 10
-75.64858136203818
 20
132.5747485390946
 30
0.0
 11
-74.54858136203838
 21
132.5747485390946
 31
0.0
  0
LINE
  5
16E
330
27E
100
AcDbEntity
  8
DATA
  6
Continuous
 62
     7
100
AcDbLine
 10
-68.84999999995025
 20
131.829342883905
 30
0.0
 11
-65.79999999995014
 21
131.829342883905
 31
0.0
  0
TEXT
  5
16F
330
27E
100
AcDbEntity
  8
DATA
 62
     7
100
AcDbText
 10
-122.3105560938018
 20
113.0444169708777
 30
0.0
 40
2.388967013888888
  1
AUDIO OUT 2
 50
180.0
 41
0.7
 11
-122.3105560938018
 21
110.6554499569888
 31
0.0
100
AcDbText
 73
     3
  0
TEXT
  5
170
330
27E
100
AcDbEntity
  8
DATA
 62
     7
100
AcDbText
 10
-123.552233473532
 20
116.3005771488726
 30
0.0
 40
2.388967013888888
  1
BALANCED
 50
180.0
 41
0.7
 11
-123.552233473532
 21
113.9116101349837
 31
0.0
100
AcDbText
 73
     3
  0
TEXT
  5
171
330
27E
100
AcDbEntity
  8
DATA
 62
     7
100
AcDbText
 10
-107.2743198401989
 20
127.0202552133649
 30
0.0
 40
2.388967013888888
  1
AUDIO OUT 1 
 50
180.0
 41
0.7
 11
-107.2743198401989
 21
124.631288199476
 31
0.0
100
AcDbText
 73
     3
  0
TEXT
  5
172
330
27E
100
AcDbEntity
  8
DATA
 62
     7
100
AcDbText
 10
-108.5159972199291
 20
130.2764153913598
 30
0.0
 40
2.388967013888888
  1
BALANCED
 50
180.0
 41
0.7
 11
-108.5159972199291
 21
127.8874483774709
 31
0.0
100
AcDbText
 73
     3
  0
TEXT
  5
173
330
27E
100
AcDbEntity
  8
DATA
 62
     7
100
AcDbText
 10
-155.1568509461196
 20
115.7154602731478
 30
0.0
 40
2.388967013888888
  1
SR 40 MINI 2
 50
180.0
 41
0.7
 11
-155.1568509461196
 21
113.3264932592589
 31
0.0
100
AcDbText
 73
     3
  0
LINE
  5
174
330
27E
100
AcDbEntity
  8
DATA
  6
Continuous
 62
     7
100
AcDbLine
 10
-159.7714285713931
 20
142.7000000000001
 30
0.0
 11
-150.2285714286057
 21
142.7000000000001
 31
0.0
  0
LINE
  5
175
330
27E
100
AcDbEntity
  8
DATA
  6
Continuous
 62
     7
100
AcDbLine
 10
-159.9857142857206
 20
141.5000000000001
 30
0.0
 11
-159.7714285713931
 21
142.7000000000001
 31
0.0
  0
LINE
  5
176
330
27E
100
AcDbEntity
  8
DATA
  6
Continuous
 62
     7
100
AcDbLine
 10
-150.0142857142781
 20
141.5000000000001
 30
0.0
 11
-150.2285714286057
 21
142.7000000000001
 31
0.0
  0
LINE
  5
177
330
27E
100
AcDbEntity
  8
DATA
  6
Continuous
 62
     7
100
AcDbLine
 10
-90.22857142860699
 20
142.7000000000001
 30
0.0
 11
-99.77142857139435
 21
142.7000000000001
 31
0.0
  0
LINE
  5
178
330
27E
100
AcDbEntity
  8
DATA
  6
Continuous
 62
     7
100
AcDbLine
 10
-90.01428571427942
 20
141.5000000000001
 30
0.0
 11
-90.22857142860701
 21
142.7000000000001
 31
0.0
  0
LINE
  5
179
330
27E
100
AcDbEntity
  8
DATA
  6
Continuous
 62
     7
100
AcDbLine
 10
-99.98571428572191
 20
141.5000000000001
 30
0.0
 11
-99.77142857139435
 21
142.7000000000001
 31
0.0
  0
LINE
  5
17A
330
27E
100
AcDbEntity
  8
DATA
  6
Continuous
 62
     7
100
AcDbLine
 10
144.7936929554721
 20
-224.999999999998
 30
0.0
 11
144.7936929554721
 21
-182.499999999998
 31
0.0
  0
CIRCLE
  5
17B
330
27E
100
AcDbEntity
  8
DATA
  6
Continuous
 62
     7
100
AcDbCircle
 10
165.7936929554721
 20
-194.999999999998
 30
0.0
 40
5.5
  0
CIRCLE
  5
17C
330
27E
100
AcDbEntity
  8
DATA
  6
Continuous
 62
     7
100
AcDbCircle
 10
165.7936929554721
 20
-194.999999999998
 30
0.0
 40
2.5
  0
LINE
  5
17D
330
27E
100
AcDbEntity
  8
DATA
  6
Continuous
 62
     7
100
AcDbLine
 10
164.2936929554721
 20
-194.999999999998
 30
0.0
 11
167.2936929554721
 21
-194.999999999998
 31
0.0
  0
LINE
  5
17E
330
27E
100
AcDbEntity
  8
DATA
  6
Continuous
 62
     7
100
AcDbLine
 10
165.7936929554721
 20
-196.499999999998
 30
0.0
 11
165.7936929554721
 21
-193.499999999998
 31
0.0
  0
CIRCLE
  5
17F
330
27E
100
AcDbEntity
  8
DATA
  6
Continuous
 62
     7
100
AcDbCircle
 10
230.7936929554721
 20
-194.999999999998
 30
0.0
 40
5.5
  0
CIRCLE
  5
180
330
27E
100
AcDbEntity
  8
DATA
  6
Continuous
 62
     7
100
AcDbCircle
 10
230.7936929554721
 20
-194.999999999998
 30
0.0
 40
2.5
  0
LINE
  5
181
330
27E
100
AcDbEntity
  8
DATA
  6
Continuous
 62
     7
100
AcDbLine
 10
229.2936929554721
 20
-194.999999999998
 30
0.0
 11
232.2936929554721
 21
-194.999999999998
 31
0.0
  0
LINE
  5
182
330
27E
100
AcDbEntity
  8
DATA
  6
Continuous
 62
     7
100
AcDbLine
 10
230.7936929554721
 20
-196.499999999998
 30
0.0
 11
230.7936929554721
 21
-193.499999999998
 31
0.0
  0
LINE
  5
183
330
27E
100
AcDbEntity
  8
DATA
  6
Continuous
 62
     7
100
AcDbLine
 10
253.0936929554721
 20
-220.499999999998
 30
0.0
 11
233.0936929554721
 21
-220.499999999998
 31
0.0
  0
LINE
  5
184
330
27E
100
AcDbEntity
  8
DATA
  6
Continuous
 62
     7
100
AcDbLine
 10
175.0936929554721
 20
-220.499999999998
 30
0.0
 11
155.0936929554721
 21
-220.499999999998
 31
0.0
  0
LINE
  5
185
330
27E
100
AcDbEntity
  8
DATA
  6
Continuous
 62
     7
100
AcDbLine
 10
253.0936929554721
 20
-220.499999999998
 30
0.0
 11
253.0936929554721
 21
-224.999999999998
 31
0.0
  0
LINE
  5
186
330
27E
100
AcDbEntity
  8
DATA
  6
Continuous
 62
     7
100
AcDbLine
 10
233.0936929554721
 20
-220.499999999998
 30
0.0
 11
233.0936929554721
 21
-224.999999999998
 31
0.0
  0
LINE
  5
187
330
27E
100
AcDbEntity
  8
DATA
  6
Continuous
 62
     7
100
AcDbLine
 10
175.0936929554721
 20
-220.499999999998
 30
0.0
 11
175.0936929554721
 21
-224.999999999998
 31
0.0
  0
LINE
  5
188
330
27E
100
AcDbEntity
  8
DATA
  6
Continuous
 62
     7
100
AcDbLine
 10
155.0936929554721
 20
-220.499999999998
 30
0.0
 11
155.0936929554721
 21
-224.999999999998
 31
0.0
  0
LINE
  5
189
330
27E
100
AcDbEntity
  8
DATA
  6
Continuous
 62
     7
100
AcDbLine
 10
256.2936929554721
 20
-221.499999999998
 30
0.0
 11
256.2936929554721
 21
-224.999999999998
 31
0.0
  0
LINE
  5
18A
330
27E
100
AcDbEntity
  8
DATA
  6
Continuous
 62
     7
100
AcDbLine
 10
256.2936929554721
 20
-221.499999999998
 30
0.0
 11
256.7936929554721
 21
-221.499999999998
 31
0.0
  0
LINE
  5
18B
330
27E
100
AcDbEntity
  8
DATA
  6
Continuous
 62
     7
100
AcDbLine
 10
-159.7714285713931
 20
-225.2000000000438
 30
0.0
 11
-150.2285714286057
 21
-225.2000000000438
 31
0.0
  0
LINE
  5
18C
330
27E
100
AcDbEntity
  8
DATA
  6
Continuous
 62
     7
100
AcDbLine
 10
-159.8071428571224
 20
-224.999999999998
 30
0.0
 11
-159.771428571393
 21
-225.2000000000437
 31
0.0
  0
LINE
  5
18D
330
27E
100
AcDbEntity
  8
DATA
  6
Continuous
 62
     7
100
AcDbLine
 10
-150.1928571428762
 20
-224.999999999998
 30
0.0
 11
-150.2285714286057
 21
-225.2000000000438
 31
0.0
  0
LINE
  5
18E
330
27E
100
AcDbEntity
  8
DATA
  6
Continuous
 62
     7
100
AcDbLine
 10
-99.77142857139307
 20
-225.2000000000438
 30
0.0
 11
-90.22857142860569
 21
-225.2000000000438
 31
0.0
  0
LINE
  5
18F
330
27E
100
AcDbEntity
  8
DATA
  6
Continuous
 62
     7
100
AcDbLine
 10
-99.80714285712245
 20
-224.999999999998
 30
0.0
 11
-99.77142857139305
 21
-225.2000000000437
 31
0.0
  0
LINE
  5
190
330
27E
100
AcDbEntity
  8
DATA
  6
Continuous
 62
     7
100
AcDbLine
 10
-90.19285714287624
 20
-224.999999999998
 30
0.0
 11
-90.22857142860569
 21
-225.2000000000438
 31
0.0
  0
LINE
  5
191
330
27E
100
AcDbEntity
  8
DATA
  6
Continuous
 62
     7
100
AcDbLine
 10
-217.5453020266437
 20
-77.0
 30
0.0
 11
-174.6499999999998
 21
-77.0
 31
0.0
  0
CIRCLE
  5
192
330
27E
100
AcDbEntity
  8
DATA
  6
Continuous
 62
     7
100
AcDbCircle
 10
-217.5453020266437
 20
-80.5
 30
0.0
 40
3.5
  0
LINE
  5
193
330
27E
100
AcDbEntity
  8
DATA
  6
Continuous
 62
     7
100
AcDbLine
 10
-174.6499999999998
 20
-69.0
 30
0.0
 11
-181.3499999999997
 21
-68.35808383233153
 31
0.0
  0
LINE
  5
194
330
27E
100
AcDbEntity
  8
DATA
  6
Continuous
 62
     7
100
AcDbLine
 10
-174.6499999999998
 20
-74.72873755667888
 30
0.0
 11
-181.3499999999998
 21
-74.72873755667888
 31
0.0
  0
LINE
  5
195
330
27E
100
AcDbEntity
  8
DATA
  6
Continuous
 62
     7
100
AcDbLine
 10
-175.0457475789749
 20
-74.72873755667888
 30
0.0
 11
-175.0457475789749
 21
-77.0
 31
0.0
  0
LINE
  5
196
330
27E
100
AcDbEntity
  8
DATA
  6
Continuous
 62
     7
100
AcDbLine
 10
-180.9542524210246
 20
-74.72873755667888
 30
0.0
 11
-180.9542524210246
 21
-77.0
 31
0.0
  0
ARC
  5
197
330
27E
100
AcDbEntity
  8
DATA
  6
Continuous
 62
     7
100
AcDbCircle
 10
-177.1499999999998
 20
-81.5
 30
0.0
 40
2.5
100
AcDbArc
 50
270.0
 51
0.0
  0
ARC
  5
198
330
27E
100
AcDbEntity
  8
DATA
  6
Continuous
 62
     7
100
AcDbCircle
 10
-184.7999167218311
 20
-80.5
 30
0.0
 40
5.199916721881035
100
AcDbArc
 50
317.6941751822312
 51
42.3058248177689
  0
ARC
  5
199
330
27E
100
AcDbEntity
  8
DATA
  6
Continuous
 62
     7
100
AcDbCircle
 10
-164.4374999925379
 20
-77.49999999254942
 30
0.0
 40
0.5000000074505806
100
AcDbArc
 50
180.0
 51
270.0
  0
ARC
  5
19A
330
27E
100
AcDbEntity
  8
DATA
  6
Continuous
 62
     7
100
AcDbCircle
 10
-156.437500007439
 20
-77.49999999254942
 30
0.0
 40
0.5000000074505806
100
AcDbArc
 50
270.0
 51
0.0
  0
ARC
  5
19B
330
27E
100
AcDbEntity
  8
DATA
  6
Continuous
 62
     7
100
AcDbCircle
 10
-91.99999999255007
 20
-76.49999999254941
 30
0.0
 40
0.5000000074505806
100
AcDbArc
 50
180.0
 51
270.0
  0
ARC
  5
19C
330
27E
100
AcDbEntity
  8
DATA
  6
Continuous
 62
     7
100
AcDbCircle
 10
-84.00000000745121
 20
-76.49999999254941
 30
0.0
 40
0.5000000074505806
100
AcDbArc
 50
270.0
 51
0.0
  0
ARC
  5
19D
330
27E
100
AcDbEntity
  8
DATA
  6
Continuous
 62
     7
100
AcDbCircle
 10
-93.49999999255009
 20
-76.49999999254942
 30
0.0
 40
0.5000000074505664
100
AcDbArc
 50
180.0
 51
270.0000000000033
  0
LINE
  5
19E
330
27E
100
AcDbEntity
  8
DATA
  6
Continuous
 62
     7
100
AcDbLine
 10
-164.4374999925379
 20
-76.0
 30
0.0
 11
-164.4374999925379
 21
-73.96194266205087
 31
0.0
  0
LINE
  5
19F
330
27E
100
AcDbEntity
  8
DATA
  6
Continuous
 62
     7
100
AcDbLine
 10
-162.4374999925379
 20
-76.0
 30
0.0
 11
-162.4374999925379
 21
-74.06462338699454
 31
0.0
  0
LINE
  5
1A0
330
27E
100
AcDbEntity
  8
DATA
  6
Continuous
 62
     7
100
AcDbLine
 10
-160.4374999925379
 20
-76.0
 30
0.0
 11
-160.4374999925379
 21
-74.16194837511305
 31
0.0
  0
LINE
  5
1A1
330
27E
100
AcDbEntity
  8
DATA
  6
Continuous
 62
     7
100
AcDbLine
 10
-158.4374999925379
 20
-76.0
 30
0.0
 11
-158.4374999925379
 21
-74.25391971439954
 31
0.0
  0
LINE
  5
1A2
330
27E
100
AcDbEntity
  8
DATA
  6
Continuous
 62
     7
100
AcDbLine
 10
-156.4374999925379
 20
-76.0
 30
0.0
 11
-156.4374999925379
 21
-74.34053937699366
 31
0.0
  0
LINE
  5
1A3
330
27E
100
AcDbEntity
  8
DATA
  6
Continuous
 62
     7
100
AcDbLine
 10
-92.50000000000065
 20
-74.29518891151371
 30
0.0
 11
-92.50000000000065
 21
-68.92245745723254
 31
0.0
  0
LINE
  5
1A4
330
27E
100
AcDbEntity
  8
DATA
  6
Continuous
 62
     7
100
AcDbLine
 10
-83.50000000000063
 20
-73.85044142847299
 30
0.0
 11
-83.50000000000063
 21
-66.8949331906355
 31
0.0
  0
LINE
  5
1A5
330
27E
100
AcDbEntity
  8
DATA
  6
Continuous
 62
     7
100
AcDbLine
 10
-94.00000000000066
 20
-74.35877423044408
 30
0.0
 11
-94.00000000000066
 21
-72.29999999999998
 31
0.0
  0
LINE
  5
1A6
330
27E
100
AcDbEntity
  8
DATA
  6
Continuous
 62
     7
100
AcDbLine
 10
-94.00000000000066
 20
-72.29999999999998
 30
0.0
 11
-92.50000000000065
 21
-71.60882318437311
 31
0.0
  0
LINE
  5
1A7
330
27E
100
AcDbEntity
  8
DATA
  6
Continuous
 62
     7
100
AcDbLine
 10
-91.39999999995014
 20
-74.99999999999999
 30
0.0
 11
-91.39999999995014
 21
-68.64540274265749
 31
0.0
  0
LINE
  5
1A8
330
27E
100
AcDbEntity
  8
DATA
  6
Continuous
 62
     7
100
AcDbLine
 10
-89.39999999995015
 20
-74.99999999999999
 30
0.0
 11
-89.39999999995015
 21
-68.16271644480946
 31
0.0
  0
LINE
  5
1A9
330
27E
100
AcDbEntity
  8
DATA
  6
Continuous
 62
     7
100
AcDbLine
 10
-87.39999999995013
 20
-74.99999999999999
 30
0.0
 11
-87.39999999995013
 21
-67.70697934550435
 31
0.0
  0
LINE
  5
1AA
330
27E
100
AcDbEntity
  8
DATA
  6
Continuous
 62
     7
100
AcDbLine
 10
-85.39999999995014
 20
-74.99999999999999
 30
0.0
 11
-85.39999999995014
 21
-67.27795748917137
 31
0.0
  0
LINE
  5
1AB
330
27E
100
AcDbEntity
  8
DATA
  6
Continuous
 62
     7
100
AcDbLine
 10
-72.84999999999978
 20
-67.35808383233153
 30
0.0
 11
-72.84999999999978
 21
-73.72873755667888
 31
0.0
  0
LINE
  5
1AC
330
27E
100
AcDbEntity
  8
DATA
  6
Continuous
 62
     7
100
AcDbLine
 10
-66.14999999999979
 20
-68.0
 30
0.0
 11
-66.14999999999979
 21
-73.72873755667888
 31
0.0
  0
CIRCLE
  5
1AD
330
27E
100
AcDbEntity
  8
DATA
  6
Continuous
 62
     7
100
AcDbCircle
 10
-29.9714730671973
 20
-79.5
 30
0.0
 40
3.5
  0
LINE
  5
1AE
330
27E
100
AcDbEntity
  8
DATA
  6
Continuous
 62
     7
100
AcDbLine
 10
-66.14999999999979
 20
-68.0
 30
0.0
 11
-72.84999999999974
 21
-67.35808383233153
 31
0.0
  0
LINE
  5
1AF
330
27E
100
AcDbEntity
  8
DATA
  6
Continuous
 62
     7
100
AcDbLine
 10
-66.14999999999982
 20
-73.72873755667888
 30
0.0
 11
-72.84999999999978
 21
-73.72873755667888
 31
0.0
  0
LINE
  5
1B0
330
27E
100
AcDbEntity
  8
DATA
  6
Continuous
 62
     7
100
AcDbLine
 10
-66.54574757897494
 20
-73.72873755667888
 30
0.0
 11
-66.54574757897494
 21
-76.0
 31
0.0
  0
LINE
  5
1B1
330
27E
100
AcDbEntity
  8
DATA
  6
Continuous
 62
     7
100
AcDbLine
 10
-72.45425242102463
 20
-73.72873755667888
 30
0.0
 11
-72.45425242102463
 21
-76.0
 31
0.0
  0
LINE
  5
1B2
330
27E
100
AcDbEntity
  8
DATA
  6
Continuous
 62
     7
100
AcDbLine
 10
-72.8499999999004
 20
-76.0
 30
0.0
 11
-72.8499999999004
 21
-80.5
 31
0.0
  0
ARC
  5
1B3
330
27E
100
AcDbEntity
  8
DATA
  6
Continuous
 62
     7
100
AcDbCircle
 10
-70.34999999990057
 20
-80.5
 30
0.0
 40
2.499999999999815
100
AcDbArc
 50
180.0
 51
270.0
  0
ARC
  5
1B4
330
27E
100
AcDbEntity
  8
DATA
  6
Continuous
 62
     7
100
AcDbCircle
 10
-62.70008327806936
 20
-79.5
 30
0.0
 40
5.199916721881031
100
AcDbArc
 50
137.6941751822311
 51
222.3058248177689
  0
LINE
  5
1B5
330
27E
100
AcDbEntity
  8
DATA
  6
Continuous
 62
     7
100
AcDbLine
 10
-70.34999999990057
 20
-83.0
 30
0.0
 11
-29.97147306719731
 21
-83.0
 31
0.0
  0
LINE
  5
1B6
330
27E
100
AcDbEntity
  8
DATA
  6
Continuous
 62
     7
100
AcDbLine
 10
-29.9714730671973
 20
-76.0
 30
0.0
 11
-72.8499999999004
 21
-76.0
 31
0.0
  0
LINE
  5
1B7
330
27E
100
AcDbEntity
  8
DATA
  6
Continuous
 62
     7
100
AcDbLine
 10
158.0285714285571
 20
-225.2000000000438
 30
0.0
 11
167.5714285713445
 21
-225.2000000000438
 31
0.0
  0
LINE
  5
1B8
330
27E
100
AcDbEntity
  8
DATA
  6
Continuous
 62
     7
100
AcDbLine
 10
157.9928571428277
 20
-224.999999999998
 30
0.0
 11
158.0285714285571
 21
-225.2000000000437
 31
0.0
  0
LINE
  5
1B9
330
27E
100
AcDbEntity
  8
DATA
  6
Continuous
 62
     7
100
AcDbLine
 10
167.6071428570739
 20
-224.999999999998
 30
0.0
 11
167.5714285713445
 21
-225.2000000000438
 31
0.0
  0
LINE
  5
1BA
330
27E
100
AcDbEntity
  8
DATA
  6
Continuous
 62
     7
100
AcDbLine
 10
240.0285714285571
 20
-225.2000000000438
 30
0.0
 11
249.5714285713444
 21
-225.2000000000438
 31
0.0
  0
LINE
  5
1BB
330
27E
100
AcDbEntity
  8
DATA
  6
Continuous
 62
     7
100
AcDbLine
 10
239.9928571428277
 20
-224.999999999998
 30
0.0
 11
240.0285714285571
 21
-225.2000000000437
 31
0.0
  0
LINE
  5
1BC
330
27E
100
AcDbEntity
  8
DATA
  6
Continuous
 62
     7
100
AcDbLine
 10
249.6071428570739
 20
-224.999999999998
 30
0.0
 11
249.5714285713444
 21
-225.2000000000438
 31
0.0
  0
ARC
  5
1BD
330
27E
100
AcDbEntity
  8
DATA
  6
Continuous
 62
     7
100
AcDbCircle
 10
273.3919980066811
 20
-226.9897208319617
 30
0.0
 40
144.611994013884
100
AcDbArc
 50
162.8143236767496
 51
179.2116407483739
  0
ARC
  5
1BE
330
27E
100
AcDbEntity
  8
DATA
  6
Continuous
 62
     7
100
AcDbCircle
 10
127.2936929554721
 20
-222.499999999998
 30
0.0
 40
2.5
100
AcDbArc
 50
180.0
 51
270.0
  0
ARC
  5
1BF
330
27E
100
AcDbEntity
  8
DATA
  6
Continuous
 62
     7
100
AcDbCircle
 10
127.2936929554721
 20
-184.999999999998
 30
0.0
 40
2.5
100
AcDbArc
 50
90.0
 51
180.0
  0
ARC
  5
1C0
330
27E
100
AcDbEntity
  8
DATA
  6
Continuous
 62
     7
100
AcDbCircle
 10
137.6249836509991
 20
-184.9999999999981
 30
0.0
 40
2.500000000000085
100
AcDbArc
 50
90.0
 51
162.8143236767479
  0
LINE
  5
1C1
330
27E
100
AcDbEntity
  8
DATA
  6
Continuous
 62
     7
100
AcDbLine
 10
137.6249836509991
 20
-182.499999999998
 30
0.0
 11
256.7936929554721
 21
-182.499999999998
 31
0.0
  0
LINE
  5
1C2
330
27E
100
AcDbEntity
  8
DATA
  6
Continuous
 62
     7
100
AcDbLine
 10
131.4168450352814
 20
-199.499999999998
 30
0.0
 11
125.593692967393
 21
-199.499999999998
 31
0.0
  0
LINE
  5
1C3
330
27E
100
AcDbEntity
  8
DATA
  6
Continuous
 62
     7
100
AcDbLine
 10
125.5936929554721
 20
-191.499999999998
 30
0.0
 11
133.2024530044203
 21
-191.499999999998
 31
0.0
  0
LINE
  5
1C4
330
27E
100
AcDbEntity
  8
DATA
  6
Continuous
 62
     7
100
AcDbLine
 10
124.7936929554721
 20
-198.699999988077
 30
0.0
 11
124.7936929554721
 21
-192.299999999998
 31
0.0
  0
ARC
  5
1C5
330
27E
100
AcDbEntity
  8
DATA
  6
Continuous
 62
     7
100
AcDbCircle
 10
125.5936929554721
 20
-192.299999999998
 30
0.0
 40
0.8000000000000113
100
AcDbArc
 50
90.0
 51
180.0
  0
ARC
  5
1C6
330
27E
100
AcDbEntity
  8
DATA
  6
Continuous
 62
     7
100
AcDbCircle
 10
125.593692967393
 20
-198.699999988077
 30
0.0
 40
0.8000000119209291
100
AcDbArc
 50
180.0
 51
270.0
  0
LINE
  5
1C7
330
27E
100
AcDbEntity
  8
DATA
  6
STYLE_01
 62
     7
100
AcDbLine
 10
116.7936929554721
 20
-198.999999999998
 30
0.0
 11
116.7936929554721
 21
-191.9999999940376
 31
0.0
  0
LINE
  5
1C8
330
27E
100
AcDbEntity
  8
DATA
  6
STYLE_01
 62
     7
100
AcDbLine
 10
124.8520731082353
 20
-198.9999999940375
 30
0.0
 11
116.7936929554721
 21
-198.9999999940375
 31
0.0
  0
LINE
  5
1C9
330
27E
100
AcDbEntity
  8
DATA
  6
STYLE_01
 62
     7
100
AcDbLine
 10
116.7936929554721
 20
-191.9999999940375
 30
0.0
 11
124.8520731091737
 21
-191.9999999940375
 31
0.0
  0
LINE
  5
1CA
330
27E
100
AcDbEntity
  8
DATA
  6
STYLE_01
 62
     7
100
AcDbLine
 10
41.79369295547211
 20
-198.999999999998
 30
0.0
 11
41.79369295547211
 21
-191.999999999998
 31
0.0
  0
LINE
  5
1CB
330
27E
100
AcDbEntity
  8
DATA
  6
STYLE_01
 62
     7
100
AcDbLine
 10
116.7936929554721
 20
-198.999999999998
 30
0.0
 11
41.79369295547211
 21
-198.999999999998
 31
0.0
  0
LINE
  5
1CC
330
27E
100
AcDbEntity
  8
DATA
  6
STYLE_01
 62
     7
100
AcDbLine
 10
41.79369295547211
 20
-191.999999999998
 30
0.0
 11
116.7936929554721
 21
-191.999999999998
 31
0.0
  0
ARC
  5
1CD
330
27E
100
AcDbEntity
  8
DATA
  6
Continuous
 62
     7
100
AcDbCircle
 10
121.2936929554721
 20
-195.4999999940375
 30
0.0
 40
3.5
100
AcDbArc
 50
90.0
 51
270.0
  0
CIRCLE
  5
1CE
330
27E
100
AcDbEntity
  8
DATA
  6
Continuous
 62
     7
100
AcDbCircle
 10
121.2936929554721
 20
-195.4999999940375
 30
0.0
 40
2.0
  0
LINE
  5
1CF
330
27E
100
AcDbEntity
  8
DATA
  6
Continuous
 62
     7
100
AcDbLine
 10
120.3936929614346
 20
-195.4999999940375
 30
0.0
 11
122.1936929495096
 21
-195.4999999940375
 31
0.0
  0
LINE
  5
1D0
330
27E
100
AcDbEntity
  8
DATA
  6
Continuous
 62
     7
100
AcDbLine
 10
121.2936929554721
 20
-196.399999988075
 30
0.0
 11
121.2936929554721
 21
-194.6
 31
0.0
  0
LINE
  5
1D1
330
27E
100
AcDbEntity
  8
DATA
  6
STYLE_01
 62
     7
100
AcDbLine
 10
46.69369295547209
 20
-198.999999999998
 30
0.0
 11
46.69369295547209
 21
-191.999999999998
 31
0.0
  0
LINE
  5
1D2
330
27E
100
AcDbEntity
  8
DATA
  6
STYLE_01
 62
     7
100
AcDbLine
 10
108.6936929554721
 20
-198.999999999998
 30
0.0
 11
108.6936929554721
 21
-191.999999999998
 31
0.0
  0
LINE
  5
1D3
330
27E
100
AcDbEntity
  8
DATA
  6
STYLE_01
 62
     7
100
AcDbLine
 10
108.8936929554721
 20
-198.999999999998
 30
0.0
 11
108.8936929554721
 21
-191.999999999998
 31
0.0
  0
LINE
  5
1D4
330
27E
100
AcDbEntity
  8
DATA
  6
STYLE_01
 62
     7
100
AcDbLine
 10
111.2936929554721
 20
-198.999999999998
 30
0.0
 11
111.2936929554721
 21
-191.999999999998
 31
0.0
  0
LINE
  5
1D5
330
27E
100
AcDbEntity
  8
DATA
  6
STYLE_01
 62
     7
100
AcDbLine
 10
111.4936929554721
 20
-198.999999999998
 30
0.0
 11
111.4936929554721
 21
-191.999999999998
 31
0.0
  0
LINE
  5
1D6
330
27E
100
AcDbEntity
  8
DATA
  6
Continuous
 62
     7
100
AcDbLine
 10
128.9490244310763
 20
-219.999999999998
 30
0.0
 11
125.593692967393
 21
-219.999999999998
 31
0.0
  0
LINE
  5
1D7
330
27E
100
AcDbEntity
  8
DATA
  6
Continuous
 62
     7
100
AcDbLine
 10
124.7936929554721
 20
-219.1999999880771
 30
0.0
 11
124.7936929554721
 21
-215.999999999998
 31
0.0
  0
ARC
  5
1D8
330
27E
100
AcDbEntity
  8
DATA
  6
Continuous
 62
     7
100
AcDbCircle
 10
125.593692967393
 20
-219.1999999880771
 30
0.0
 40
0.8000000119209291
100
AcDbArc
 50
180.0
 51
270.0
  0
LINE
  5
1D9
330
27E
100
AcDbEntity
  8
DATA
  6
STYLE_01
 62
     7
100
AcDbLine
 10
116.7936929554721
 20
-219.499999999998
 30
0.0
 11
116.7936929554721
 21
-212.4999999940376
 31
0.0
  0
LINE
  5
1DA
330
27E
100
AcDbEntity
  8
DATA
  6
STYLE_01
 62
     7
100
AcDbLine
 10
124.8520731082353
 20
-219.4999999940375
 30
0.0
 11
116.7936929554721
 21
-219.4999999940375
 31
0.0
  0
LINE
  5
1DB
330
27E
100
AcDbEntity
  8
DATA
  6
STYLE_01
 62
     7
100
AcDbLine
 10
116.7936929554721
 20
-212.4999999940375
 30
0.0
 11
122.8000359317529
 21
-212.4999999940375
 31
0.0
  0
LINE
  5
1DC
330
27E
100
AcDbEntity
  8
DATA
  6
STYLE_01
 62
     7
100
AcDbLine
 10
41.79369295547211
 20
-219.499999999998
 30
0.0
 11
41.79369295547211
 21
-212.499999999998
 31
0.0
  0
LINE
  5
1DD
330
27E
100
AcDbEntity
  8
DATA
  6
STYLE_01
 62
     7
100
AcDbLine
 10
116.7936929554721
 20
-219.499999999998
 30
0.0
 11
41.79369295547211
 21
-219.499999999998
 31
0.0
  0
LINE
  5
1DE
330
27E
100
AcDbEntity
  8
DATA
  6
STYLE_01
 62
     7
100
AcDbLine
 10
41.79369295547211
 20
-212.499999999998
 30
0.0
 11
116.7936929554721
 21
-212.499999999998
 31
0.0
  0
ARC
  5
1DF
330
27E
100
AcDbEntity
  8
DATA
  6
Continuous
 62
     7
100
AcDbCircle
 10
121.2936929554721
 20
-215.9999999940375
 30
0.0
 40
3.5
100
AcDbArc
 50
90.0
 51
270.0
  0
ARC
  5
1E0
330
27E
100
AcDbEntity
  8
DATA
  6
Continuous
 62
     7
100
AcDbCircle
 10
121.2936929554719
 20
-215.9999999940376
 30
0.0
 40
2.000000000000171
100
AcDbArc
 50
30.1868814305247
 51
0.0000000000015916
  0
LINE
  5
1E1
330
27E
100
AcDbEntity
  8
DATA
  6
Continuous
 62
     7
100
AcDbLine
 10
120.3936929614346
 20
-215.9999999940375
 30
0.0
 11
122.1936929495096
 21
-215.9999999940375
 31
0.0
  0
LINE
  5
1E2
330
27E
100
AcDbEntity
  8
DATA
  6
Continuous
 62
     7
100
AcDbLine
 10
121.2936929554721
 20
-216.899999988075
 30
0.0
 11
121.2936929554721
 21
-215.1
 31
0.0
  0
LINE
  5
1E3
330
27E
100
AcDbEntity
  8
DATA
  6
STYLE_01
 62
     7
100
AcDbLine
 10
46.69369295547209
 20
-219.499999999998
 30
0.0
 11
46.69369295547209
 21
-212.499999999998
 31
0.0
  0
LINE
  5
1E4
330
27E
100
AcDbEntity
  8
DATA
  6
STYLE_01
 62
     7
100
AcDbLine
 10
108.6936929554721
 20
-219.499999999998
 30
0.0
 11
108.6936929554721
 21
-212.499999999998
 31
0.0
  0
LINE
  5
1E5
330
27E
100
AcDbEntity
  8
DATA
  6
STYLE_01
 62
     7
100
AcDbLine
 10
108.8936929554721
 20
-219.499999999998
 30
0.0
 11
108.8936929554721
 21
-212.499999999998
 31
0.0
  0
LINE
  5
1E6
330
27E
100
AcDbEntity
  8
DATA
  6
STYLE_01
 62
     7
100
AcDbLine
 10
111.2936929554721
 20
-219.499999999998
 30
0.0
 11
111.2936929554721
 21
-212.499999999998
 31
0.0
  0
LINE
  5
1E7
330
27E
100
AcDbEntity
  8
DATA
  6
STYLE_01
 62
     7
100
AcDbLine
 10
111.4936929554721
 20
-219.499999999998
 30
0.0
 11
111.4936929554721
 21
-212.499999999998
 31
0.0
  0
LINE
  5
1E8
330
27E
100
AcDbEntity
  8
DATA
  6
STYLE_01
 62
     7
100
AcDbLine
 10
124.753482827628
 20
-183.9214400017364
 30
0.0
 11
124.753482827628
 21
-191.9798201554381
 31
0.0
  0
LINE
  5
1E9
330
27E
100
AcDbEntity
  8
DATA
  6
Continuous
 62
     7
100
AcDbLine
 10
123.2038456342808
 20
-207.999999999998
 30
0.0
 11
130.0322431401366
 21
-207.999999999998
 31
0.0
  0
LINE
  5
1EA
330
27E
100
AcDbEntity
  8
DATA
  6
Continuous
 62
     7
100
AcDbLine
 10
123.2038456342808
 20
-215.999999999998
 30
0.0
 11
129.1981879845198
 21
-215.999999999998
 31
0.0
  0
ARC
  5
1EB
330
27E
100
AcDbEntity
  8
DATA
  6
Continuous
 62
     7
100
AcDbCircle
 10
142.503701027217
 20
-211.999999999998
 30
0.0
 40
19.71000807174485
100
AcDbArc
 50
168.2909135890267
 51
191.7090864109733
  0
LINE
  5
1EC
330
27E
100
AcDbEntity
  8
DATA
  6
Continuous
 62
     7
100
AcDbLine
 10
121.2936929554721
 20
-212.4999999940375
 30
0.0
 11
121.2936929554721
 21
-212.5
 31
0.0
  0
LINE
  5
1ED
330
27E
100
AcDbEntity
  8
DATA
  6
Continuous
 62
     7
100
AcDbLine
 10
124.753482827628
 20
-186.499999999998
 30
0.0
 11
134.56400616202
 21
-186.499999999998
 31
0.0
  0
LINE
  5
1EE
330
27E
100
AcDbEntity
  8
DATA
  6
Continuous
 62
     7
100
AcDbLine
 10
256.7936929554721
 20
-182.499999999998
 30
0.0
 11
256.7936929554721
 21
-208.2968193849978
 31
0.0
  0
LINE
  5
1EF
330
27E
100
AcDbEntity
  8
DATA
  6
Continuous
 62
     7
100
AcDbLine
 10
127.56400616202
 20
-187.6072095881026
 30
0.0
 11
134.2458639576212
 21
-187.6072095881026
 31
0.0
  0
LINE
  5
1F0
330
27E
100
AcDbEntity
  8
DATA
  6
Continuous
 62
     7
100
AcDbLine
 10
127.56400616202
 20
-189.6072095881025
 30
0.0
 11
133.6952669576892
 21
-189.6072095881025
 31
0.0
  0
LINE
  5
1F1
330
27E
100
AcDbEntity
  8
DATA
  6
Continuous
 62
     7
100
AcDbLine
 10
-190.3999999999993
 20
139.0000000000021
 30
0.0
 11
-190.3999999999993
 21
142.3323807579383
 31
0.0
  0
LINE
  5
1F2
330
27E
100
AcDbEntity
  8
DATA
  6
Continuous
 62
     7
100
AcDbLine
 10
-59.60000000000064
 20
139.0000000000021
 30
0.0
 11
-59.60000000000064
 21
142.3323807579383
 31
0.0
  0
LINE
  5
1F3
330
27E
100
AcDbEntity
  8
DATA
  6
Continuous
 62
     7
100
AcDbLine
 10
-191.9999999999994
 20
139.0000000000021
 30
0.0
 11
-190.3999999999993
 21
139.0000000000021
 31
0.0
  0
LINE
  5
1F4
330
27E
100
AcDbEntity
  8
DATA
  6
Continuous
 62
     7
100
AcDbLine
 10
-59.60000000000062
 20
139.0000000000021
 30
0.0
 11
-58.00000000000063
 21
139.0000000000021
 31
0.0
  0
LINE
  5
1F5
330
27E
100
AcDbEntity
  8
DATA
  6
STYLE_01
 62
     7
100
AcDbLine
 10
124.7936929614324
 20
-220.4999999940374
 30
0.0
 11
117.7936929554719
 21
-220.4999999940374
 31
0.0
  0
LINE
  5
1F6
330
27E
100
AcDbEntity
  8
DATA
  6
STYLE_01
 62
     7
100
AcDbLine
 10
117.7936929554719
 20
-220.4999999940374
 30
0.0
 11
117.7936929554719
 21
-219.4999999940375
 31
0.0
  0
LINE
  5
1F7
330
27E
100
AcDbEntity
  8
DATA
  6
STYLE_01
 62
     7
100
AcDbLine
 10
124.7936929614323
 20
-295.4999999940375
 30
0.0
 11
117.7936929614323
 21
-295.4999999940375
 31
0.0
  0
LINE
  5
1F8
330
27E
100
AcDbEntity
  8
DATA
  6
STYLE_01
 62
     7
100
AcDbLine
 10
124.7936929554721
 20
-222.499999999998
 30
0.0
 11
124.7936929614323
 21
-295.4999999940375
 31
0.0
  0
LINE
  5
1F9
330
27E
100
AcDbEntity
  8
DATA
  6
STYLE_01
 62
     7
100
AcDbLine
 10
117.7936929614323
 20
-295.4999999940375
 30
0.0
 11
117.7936929614323
 21
-220.4999999940374
 31
0.0
  0
LINE
  5
1FA
330
27E
100
AcDbEntity
  8
DATA
  6
STYLE_01
 62
     7
100
AcDbLine
 10
124.7936929614323
 20
-290.5999999940375
 30
0.0
 11
117.7936929614323
 21
-290.5999999940375
 31
0.0
  0
LINE
  5
1FB
330
27E
100
AcDbEntity
  8
DATA
  6
STYLE_01
 62
     7
100
AcDbLine
 10
124.7936929614323
 20
-228.5999999940374
 30
0.0
 11
117.7936929614323
 21
-228.5999999940374
 31
0.0
  0
LINE
  5
1FC
330
27E
100
AcDbEntity
  8
DATA
  6
STYLE_01
 62
     7
100
AcDbLine
 10
124.7936929614323
 20
-228.3999999940375
 30
0.0
 11
117.7936929614323
 21
-228.3999999940375
 31
0.0
  0
LINE
  5
1FD
330
27E
100
AcDbEntity
  8
DATA
  6
STYLE_01
 62
     7
100
AcDbLine
 10
124.7936929614323
 20
-225.9999999940375
 30
0.0
 11
117.7936929614323
 21
-225.9999999940375
 31
0.0
  0
LINE
  5
1FE
330
27E
100
AcDbEntity
  8
DATA
  6
STYLE_01
 62
     7
100
AcDbLine
 10
124.7936929614323
 20
-225.7999999940374
 30
0.0
 11
117.7936929614323
 21
-225.7999999940374
 31
0.0
  0
LINE
  5
1FF
330
27E
100
AcDbEntity
  8
DATA
  6
STYLE_01
 62
     7
100
AcDbLine
 10
117.7936929495116
 20
-190.9999999940375
 30
0.0
 11
124.793692955472
 21
-190.9999999940375
 31
0.0
  0
LINE
  5
200
330
27E
100
AcDbEntity
  8
DATA
  6
STYLE_01
 62
     7
100
AcDbLine
 10
117.7936929554721
 20
-191.9999999940375
 30
0.0
 11
117.7936929554721
 21
-190.9999999940374
 31
0.0
  0
LINE
  5
201
330
27E
100
AcDbEntity
  8
DATA
  6
STYLE_01
 62
     7
100
AcDbLine
 10
117.7936929495116
 20
-115.9999999940374
 30
0.0
 11
124.7936929495117
 21
-115.9999999940374
 31
0.0
  0
LINE
  5
202
330
27E
100
AcDbEntity
  8
DATA
  6
STYLE_01
 62
     7
100
AcDbLine
 10
117.7936929495116
 20
-190.9999999940375
 30
0.0
 11
117.7936929495116
 21
-115.9999999940374
 31
0.0
  0
LINE
  5
203
330
27E
100
AcDbEntity
  8
DATA
  6
STYLE_01
 62
     7
100
AcDbLine
 10
124.7936929495117
 20
-115.9999999940374
 30
0.0
 11
124.7936929554721
 21
-184.999999999998
 31
0.0
  0
LINE
  5
204
330
27E
100
AcDbEntity
  8
DATA
  6
STYLE_01
 62
     7
100
AcDbLine
 10
117.7936929495116
 20
-120.8999999940375
 30
0.0
 11
124.7936929495117
 21
-120.8999999940375
 31
0.0
  0
LINE
  5
205
330
27E
100
AcDbEntity
  8
DATA
  6
STYLE_01
 62
     7
100
AcDbLine
 10
117.7936929495116
 20
-182.8999999940375
 30
0.0
 11
124.7936929495117
 21
-182.8999999940375
 31
0.0
  0
LINE
  5
206
330
27E
100
AcDbEntity
  8
DATA
  6
STYLE_01
 62
     7
100
AcDbLine
 10
117.7936929495116
 20
-183.0999999940375
 30
0.0
 11
124.7936929495117
 21
-183.0999999940375
 31
0.0
  0
LINE
  5
207
330
27E
100
AcDbEntity
  8
DATA
  6
STYLE_01
 62
     7
100
AcDbLine
 10
117.7936929495116
 20
-185.4999999940375
 30
0.0
 11
124.7936929495117
 21
-185.4999999940375
 31
0.0
  0
LINE
  5
208
330
27E
100
AcDbEntity
  8
DATA
  6
STYLE_01
 62
     7
100
AcDbLine
 10
117.7936929495116
 20
-185.6999999940375
 30
0.0
 11
124.7936929495117
 21
-185.6999999940375
 31
0.0
  0
ARC
  5
209
330
27E
100
AcDbEntity
  8
DATA
  6
STYLE_01
 62
     7
100
AcDbCircle
 10
121.2936929554721
 20
-195.4999999940375
 30
0.0
 40
79.50000000000002
100
AcDbArc
 50
90.00000000429571
 51
180.0000000042956
  0
ARC
  5
20A
330
27E
100
AcDbEntity
  8
DATA
  6
STYLE_02
 62
     7
100
AcDbCircle
 10
121.2936929554719
 20
-215.9999999940376
 30
0.0
 40
79.49999999999985
100
AcDbArc
 50
180.0000000042956
 51
270.0000000042957
  0
TEXT
  5
20B
330
27E
100
AcDbEntity
  8
DATA
 62
     7
100
AcDbText
 10
144.6719580158488
 20
-337.2450545578022
 30
0.0
 40
4.886523437499999
  1
2チャンネル受信機
 41
0.7
 11
144.6719580158488
 21
-332.3585311203022
 31
0.0
100
AcDbText
 73
     3
  0
CIRCLE
  5
20C
330
27E
100
AcDbEntity
  8
DATA
  6
STYLE_01
 62
     7
100
AcDbCircle
 10
-177.9999999999803
 20
-215.9999999977294
 30
0.0
 40
80.00000000002552
  0
CIRCLE
  5
20D
330
27E
100
AcDbEntity
  8
DATA
  6
STYLE_01
 62
     7
100
AcDbCircle
 10
-69.50000000001113
 20
-195.4999999999938
 30
0.0
 40
80.00000000002556
  0
ENDSEC
  0
SECTION
  2
OBJECTS
  0
DICTIONARY
  5
21B
330
0
100
AcDbDictionary
281
     1
  3
ACAD_CIP_PREVIOUS_PRODUCT_INFO
350
298
  3
ACAD_COLOR
350
271
  3
ACAD_DETAILVIEWSTYLE
350
278
  3
ACAD_GROUP
350
21C
  3
ACAD_LAYOUT
350
270
  3
ACAD_MATERIAL
350
21F
  3
ACAD_MLEADERSTYLE
350
274
  3
ACAD_MLINESTYLE
350
26D
  3
ACAD_PLOTSETTINGS
350
26F
  3
ACAD_PLOTSTYLENAME
350
21D
  3
ACAD_SCALELIST
350
251
  3
ACAD_SECTIONVIEWSTYLE
350
276
  3
ACAD_TABLESTYLE
350
272
  3
ACAD_VISUALSTYLE
350
238
  3
ACDB_RECOMPOSE_DATA
350
2B0
  3
AcDbVariableDictionary
350
2A3
  3
DWGPROPS
350
2B1
  0
DICTIONARY
  5
299
330
263
100
AcDbDictionary
280
     1
281
     1
  3
ADSK_XREC_LAYER_RECONCILED
360
29A
  0
DICTIONARY
  5
29B
330
282
100
AcDbDictionary
280
     1
281
     1
  3
ADSK_XREC_LAYER_RECONCILED
360
29C
  0
DICTIONARY
  5
29D
330
290
100
AcDbDictionary
280
     1
281
     1
  3
ADSK_XREC_LAYER_RECONCILED
360
29E
  0
DICTIONARY
  5
29F
330
291
100
AcDbDictionary
280
     1
281
     1
  3
ADSK_XREC_LAYER_RECONCILED
360
2A0
  0
DICTIONARY
  5
2A1
330
292
100
AcDbDictionary
280
     1
281
     1
  3
ADSK_XREC_LAYER_RECONCILED
360
2A2
  0
XRECORD
  5
298
102
{ACAD_REACTORS
330
21B
102
}
330
21B
100
AcDbXrecord
280
     1
300
ACDLT
300
2016
300
ACDLT_F_S
  0
DICTIONARY
  5
271
102
{ACAD_REACTORS
330
21B
102
}
330
21B
100
AcDbDictionary
281
     1
  0
DICTIONARY
  5
278
102
{ACAD_REACTORS
330
21B
102
}
330
21B
100
AcDbDictionary
281
     1
  3
Imperial24
350
279
  0
DICTIONARY
  5
21C
102
{ACAD_REACTORS
330
21B
102
}
330
21B
100
AcDbDictionary
281
     1
  0
DICTIONARY
  5
270
102
{ACAD_REACTORS
330
21B
102
}
330
21B
100
AcDbDictionary
281
     1
  3
Model
350
281
  3
レイアウト1
350
27D
  0
DICTIONARY
  5
21F
102
{ACAD_REACTORS
330
21B
102
}
330
21B
100
AcDbDictionary
281
     1
  3
ByBlock
350
228
  3
ByLayer
350
220
  3
Global
350
230
  0
DICTIONARY
  5
274
102
{ACAD_REACTORS
330
21B
102
}
330
21B
100
AcDbDictionary
281
     1
  3
Standard
350
275
  0
DICTIONARY
  5
26D
102
{ACAD_REACTORS
330
21B
102
}
330
21B
100
AcDbDictionary
281
     1
  3
Standard
350
26E
  0
DICTIONARY
  5
26F
102
{ACAD_REACTORS
330
21B
102
}
330
21B
100
AcDbDictionary
281
     1
  0
ACDBDICTIONARYWDFLT
  5
21D
102
{ACAD_REACTORS
330
21B
102
}
330
21B
100
AcDbDictionary
281
     1
  3
Normal
350
21E
100
AcDbDictionaryWithDefault
340
21E
  0
DICTIONARY
  5
251
102
{ACAD_REACTORS
330
21B
102
}
330
21B
100
AcDbDictionary
281
     1
  3
A0
350
252
  3
A1
350
253
  3
A2
350
254
  3
A3
350
255
  3
A4
350
256
  3
A5
350
257
  3
A6
350
258
  3
A7
350
259
  3
A8
350
25A
  3
A9
350
25B
  3
B0
350
25C
  3
B1
350
25D
  3
B2
350
25E
  3
B3
350
25F
  3
B4
350
260
  3
B5
350
261
  3
B6
350
262
  0
DICTIONARY
  5
276
102
{ACAD_REACTORS
330
21B
102
}
330
21B
100
AcDbDictionary
281
     1
  3
Imperial24
350
277
  0
DICTIONARY
  5
272
102
{ACAD_REACTORS
330
21B
102
}
330
21B
100
AcDbDictionary
281
     1
  3
Standard
350
273
  0
DICTIONARY
  5
238
102
{ACAD_REACTORS
330
21B
102
}
330
21B
100
AcDbDictionary
281
     1
  3
2dWireframe
350
23E
  3
Basic
350
23D
  3
Brighten
350
244
  3
ColorChange
350
248
  3
Conceptual
350
241
  3
Dim
350
243
  3
EdgeColorOff
350
250
  3
Facepattern
350
247
  3
Flat
350
239
  3
FlatWithEdges
350
23A
  3
Gouraud
350
23B
  3
GouraudWithEdges
350
23C
  3
Hidden
350
240
  3
JitterOff
350
24E
  3
Linepattern
350
246
  3
OverhangOff
350
24F
  3
Realistic
350
242
  3
Shaded
350
24D
  3
Shaded with edges
350
24C
  3
Shades of Gray
350
249
  3
Sketchy
350
24A
  3
Thicken
350
245
  3
Wireframe
350
23F
  3
X-Ray
350
24B
  0
XRECORD
  5
2B0
102
{ACAD_REACTORS
330
21B
102
}
330
21B
100
AcDbXrecord
280
     1
 90
        1
330
273
  0
DICTIONARY
  5
2A3
102
{ACAD_REACTORS
330
21B
102
}
330
21B
100
AcDbDictionary
281
     1
  3
CANNOSCALE
350
2A8
  3
CMLEADERSTYLE
350
2A5
  3
CTABLESTYLE
350
2A4
  3
CVIEWDETAILSTYLE
350
2A6
  3
CVIEWSECTIONSTYLE
350
2A7
  3
DIMASSOC
350
2AB
  3
INDEXCTL
350
2AA
  3
SORTENTS
350
2A9
  3
XCLIPFRAME
350
2AC
  0
XRECORD
  5
2B1
102
{ACAD_REACTORS
330
21B
102
}
330
21B
100
AcDbXrecord
280
     1
  1
DWGPROPS COOKIE
  2

  3

  4

  6

  7

  8
sasaki_n
  9

300
=
301
=
302
=
303
=
304
=
305
=
306
=
307
=
308
=
309
=
 40
0.0003500694444444
 41
2457157.499166667
 42
2457157.506565649
  1

 90
        0
  0
XRECORD
  5
29A
102
{ACAD_REACTORS
330
299
102
}
330
299
100
AcDbXrecord
280
     1
290
     1
  0
XRECORD
  5
29C
102
{ACAD_REACTORS
330
29B
102
}
330
29B
100
AcDbXrecord
280
     1
290
     1
  0
XRECORD
  5
29E
102
{ACAD_REACTORS
330
29D
102
}
330
29D
100
AcDbXrecord
280
     1
290
     1
  0
XRECORD
  5
2A0
102
{ACAD_REACTORS
330
29F
102
}
330
29F
100
AcDbXrecord
280
     1
290
     1
  0
XRECORD
  5
2A2
102
{ACAD_REACTORS
330
2A1
102
}
330
2A1
100
AcDbXrecord
280
     1
290
     1
  0
ACDBDETAILVIEWSTYLE
  5
279
102
{ACAD_XDICTIONARY
360
2E9
102
}
102
{ACAD_REACTORS
330
278
102
}
330
278
100
AcDbModelDocViewStyle
 70
     0
  3
Imperial24
290
     0
100
AcDbDetailViewStyle
 70
     0
 71
     0
 90
        3
 71
     1
340
264
 40
0.24
340
0
 40
0.24
300

 40
0.36
280
     3
 71
     2
340
26B
 90
       25
 71
     3
340
264
 40
0.24
 90
        1
 40
0.75
 90
        1
300
%<\AcVar ViewType \f "%tc1">% %<\AcVar ViewDetailId>%\PSCALE %<\AcVar ViewScale \f "%sn">%
 71
     4
340
26B
 90
       25
340
26B
 90
       25
280
     0
  0
LAYOUT
  5
281
102
{ACAD_XDICTIONARY
360
2ED
102
}
102
{ACAD_REACTORS
330
270
102
}
330
270
100
AcDbPlotSettings
  1

  2
Microsoft XPS Document Writer
  4

  6

 40
0.0
 41
0.0
 42
0.0
 43
0.0
 44
0.0
 45
0.0
 46
0.0
 47
0.0
 48
0.0
 49
0.0
140
0.0
141
0.0
142
1.0
143
1.0
 70
  1712
 72
     0
 73
     0
 74
     0
  7

 75
     0
147
1.0
148
0.0
149
0.0
100
AcDbLayout
  1
Model
 70
     1
 71
     0
 10
0.0
 20
0.0
 11
12.0
 21
9.0
 12
0.0
 22
0.0
 32
0.0
 14
0.0
 24
0.0
 34
0.0
 15
0.0
 25
0.0
 35
0.0
146
0.0
 13
0.0
 23
0.0
 33
0.0
 16
1.0
 26
0.0
 36
0.0
 17
0.0
 27
1.0
 37
0.0
 76
     0
330
27E
331
283
  0
LAYOUT
  5
27D
102
{ACAD_XDICTIONARY
360
2EB
102
}
102
{ACAD_REACTORS
330
270
102
}
330
270
100
AcDbPlotSettings
  1

  2
Microsoft XPS Document Writer
  4

  6

 40
0.0
 41
0.0
 42
0.0
 43
0.0
 44
0.0
 45
0.0
 46
0.0
 47
0.0
 48
0.0
 49
0.0
140
0.0
141
0.0
142
1.0
143
1.0
 70
   688
 72
     0
 73
     0
 74
     5
  7

 75
    16
147
1.0
148
0.0
149
0.0
100
AcDbLayout
  1
レイアウト1
 70
     0
 71
     1
 10
0.0
 20
0.0
 11
12.0
 21
9.0
 12
0.0
 22
0.0
 32
0.0
 14
1.000000000000000E+20
 24
1.000000000000000E+20
 34
1.000000000000000E+20
 15
-1.000000000000000E+20
 25
-1.000000000000000E+20
 35
-1.000000000000000E+20
146
0.0
 13
0.0
 23
0.0
 33
0.0
 16
1.0
 26
0.0
 36
0.0
 17
0.0
 27
1.0
 37
0.0
 76
     0
330
27A
  0
MATERIAL
  5
228
102
{ACAD_XDICTIONARY
360
229
102
}
102
{ACAD_REACTORS
330
21F
102
}
330
21F
100
AcDbMaterial
  1
ByBlock
 72
     0
 43
0.0208333333333333
 43
0.0
 43
0.0
 43
0.0
 43
0.0
 43
0.0208333333333333
 43
0.0
 43
0.0
 43
0.0
 43
0.0
 43
1.0
 43
0.0
 43
0.0
 43
0.0
 43
0.0
 43
1.0
 77
     0
 47
0.0208333333333333
 47
0.0
 47
0.0
 47
0.0
 47
0.0
 47
0.0208333333333333
 47
0.0
 47
0.0
 47
0.0
 47
0.0
 47
1.0
 47
0.0
 47
0.0
 47
0.0
 47
0.0
 47
1.0
171
     0
 49
0.0208333333333333
 49
0.0
 49
0.0
 49
0.0
 49
0.0
 49
0.0208333333333333
 49
0.0
 49
0.0
 49
0.0
 49
0.0
 49
1.0
 49
0.0
 49
0.0
 49
0.0
 49
0.0
 49
1.0
175
     0
142
0.0208333333333333
142
0.0
142
0.0
142
0.0
142
0.0
142
0.0208333333333333
142
0.0
142
0.0
142
0.0
142
0.0
142
1.0
142
0.0
142
0.0
142
0.0
142
0.0
142
1.0
179
     0
144
0.0208333333333333
144
0.0
144
0.0
144
0.0
144
0.0
144
0.0208333333333333
144
0.0
144
0.0
144
0.0
144
0.0
144
1.0
144
0.0
144
0.0
144
0.0
144
0.0
144
1.0
147
0.0208333333333333
147
0.0
147
0.0
147
0.0
147
0.0
147
0.0208333333333333
147
0.0
147
0.0
147
0.0
147
0.0
147
1.0
147
0.0
147
0.0
147
0.0
147
0.0
147
1.0
  0
MATERIAL
  5
220
102
{ACAD_XDICTIONARY
360
221
102
}
102
{ACAD_REACTORS
330
21F
102
}
330
21F
100
AcDbMaterial
  1
ByLayer
 72
     0
 43
0.0208333333333333
 43
0.0
 43
0.0
 43
0.0
 43
0.0
 43
0.0208333333333333
 43
0.0
 43
0.0
 43
0.0
 43
0.0
 43
1.0
 43
0.0
 43
0.0
 43
0.0
 43
0.0
 43
1.0
 77
     0
 47
0.0208333333333333
 47
0.0
 47
0.0
 47
0.0
 47
0.0
 47
0.0208333333333333
 47
0.0
 47
0.0
 47
0.0
 47
0.0
 47
1.0
 47
0.0
 47
0.0
 47
0.0
 47
0.0
 47
1.0
171
     0
 49
0.0208333333333333
 49
0.0
 49
0.0
 49
0.0
 49
0.0
 49
0.0208333333333333
 49
0.0
 49
0.0
 49
0.0
 49
0.0
 49
1.0
 49
0.0
 49
0.0
 49
0.0
 49
0.0
 49
1.0
175
     0
142
0.0208333333333333
142
0.0
142
0.0
142
0.0
142
0.0
142
0.0208333333333333
142
0.0
142
0.0
142
0.0
142
0.0
142
1.0
142
0.0
142
0.0
142
0.0
142
0.0
142
1.0
179
     0
144
0.0208333333333333
144
0.0
144
0.0
144
0.0
144
0.0
144
0.0208333333333333
144
0.0
144
0.0
144
0.0
144
0.0
144
1.0
144
0.0
144
0.0
144
0.0
144
0.0
144
1.0
147
0.0208333333333333
147
0.0
147
0.0
147
0.0
147
0.0
147
0.0208333333333333
147
0.0
147
0.0
147
0.0
147
0.0
147
1.0
147
0.0
147
0.0
147
0.0
147
0.0
147
1.0
  0
MATERIAL
  5
230
102
{ACAD_XDICTIONARY
360
231
102
}
102
{ACAD_REACTORS
330
21F
102
}
330
21F
100
AcDbMaterial
  1
Global
 72
     0
 43
0.0208333333333333
 43
0.0
 43
0.0
 43
0.0
 43
0.0
 43
0.0208333333333333
 43
0.0
 43
0.0
 43
0.0
 43
0.0
 43
1.0
 43
0.0
 43
0.0
 43
0.0
 43
0.0
 43
1.0
 77
     0
 47
0.0208333333333333
 47
0.0
 47
0.0
 47
0.0
 47
0.0
 47
0.0208333333333333
 47
0.0
 47
0.0
 47
0.0
 47
0.0
 47
1.0
 47
0.0
 47
0.0
 47
0.0
 47
0.0
 47
1.0
171
     0
 49
0.0208333333333333
 49
0.0
 49
0.0
 49
0.0
 49
0.0
 49
0.0208333333333333
 49
0.0
 49
0.0
 49
0.0
 49
0.0
 49
1.0
 49
0.0
 49
0.0
 49
0.0
 49
0.0
 49
1.0
175
     0
142
0.0208333333333333
142
0.0
142
0.0
142
0.0
142
0.0
142
0.0208333333333333
142
0.0
142
0.0
142
0.0
142
0.0
142
1.0
142
0.0
142
0.0
142
0.0
142
0.0
142
1.0
179
     0
144
0.0208333333333333
144
0.0
144
0.0
144
0.0
144
0.0
144
0.0208333333333333
144
0.0
144
0.0
144
0.0
144
0.0
144
1.0
144
0.0
144
0.0
144
0.0
144
0.0
144
1.0
147
0.0208333333333333
147
0.0
147
0.0
147
0.0
147
0.0
147
0.0208333333333333
147
0.0
147
0.0
147
0.0
147
0.0
147
1.0
147
0.0
147
0.0
147
0.0
147
0.0
147
1.0
  0
MLEADERSTYLE
  5
275
102
{ACAD_REACTORS
330
274
102
}
330
274
100
AcDbMLeaderStyle
170
     2
171
     1
172
     0
 90
        2
 40
0.0
 41
0.0
173
     1
 91
-1056964608
340
269
 92
       -2
290
     1
 42
0.09
291
     1
 43
0.36
  3
Standard
 44
0.18
300

342
264
174
     1
178
     6
175
     1
176
     0
 93
-1056964608
 45
0.18
292
     0
297
     0
 46
0.18
 94
-1056964608
 47
1.0
 49
1.0
140
1.0
293
     1
141
0.0
294
     1
177
     0
142
1.0
295
     0
296
     0
143
0.125
1001
ACAD_MLEADERVER
1070
     2
  0
MLINESTYLE
  5
26E
102
{ACAD_REACTORS
330
26D
102
}
330
26D
100
AcDbMlineStyle
  2
STANDARD
 70
     0
  3

 62
   256
 51
90.0
 52
90.0
 71
     2
 49
0.5
 62
   256
  6
BYLAYER
 49
-0.5
 62
   256
  6
BYLAYER
  0
ACDBPLACEHOLDER
  5
21E
102
{ACAD_REACTORS
330
21D
102
}
330
21D
  0
SCALE
  5
252
102
{ACAD_REACTORS
330
251
102
}
330
251
100
AcDbScale
 70
     0
300
1:1
140
1.0
141
1.0
290
     1
  0
SCALE
  5
253
102
{ACAD_REACTORS
330
251
102
}
330
251
100
AcDbScale
 70
     0
300
1/128" = 1'-0"
140
0.0078125
141
12.0
290
     0
  0
SCALE
  5
254
102
{ACAD_REACTORS
330
251
102
}
330
251
100
AcDbScale
 70
     0
300
1/64" = 1'-0"
140
0.015625
141
12.0
290
     0
  0
SCALE
  5
255
102
{ACAD_REACTORS
330
251
102
}
330
251
100
AcDbScale
 70
     0
300
1/32" = 1'-0"
140
0.03125
141
12.0
290
     0
  0
SCALE
  5
256
102
{ACAD_REACTORS
330
251
102
}
330
251
100
AcDbScale
 70
     0
300
1/16" = 1'-0"
140
0.0625
141
12.0
290
     0
  0
SCALE
  5
257
102
{ACAD_REACTORS
330
251
102
}
330
251
100
AcDbScale
 70
     0
300
3/32" = 1'-0"
140
0.09375
141
12.0
290
     0
  0
SCALE
  5
258
102
{ACAD_REACTORS
330
251
102
}
330
251
100
AcDbScale
 70
     0
300
1/8" = 1'-0"
140
0.125
141
12.0
290
     0
  0
SCALE
  5
259
102
{ACAD_REACTORS
330
251
102
}
330
251
100
AcDbScale
 70
     0
300
3/16" = 1'-0"
140
0.1875
141
12.0
290
     0
  0
SCALE
  5
25A
102
{ACAD_REACTORS
330
251
102
}
330
251
100
AcDbScale
 70
     0
300
1/4" = 1'-0"
140
0.25
141
12.0
290
     0
  0
SCALE
  5
25B
102
{ACAD_REACTORS
330
251
102
}
330
251
100
AcDbScale
 70
     0
300
3/8" = 1'-0"
140
0.375
141
12.0
290
     0
  0
SCALE
  5
25C
102
{ACAD_REACTORS
330
251
102
}
330
251
100
AcDbScale
 70
     0
300
1/2" = 1'-0"
140
0.5
141
12.0
290
     0
  0
SCALE
  5
25D
102
{ACAD_REACTORS
330
251
102
}
330
251
100
AcDbScale
 70
     0
300
3/4" = 1'-0"
140
0.75
141
12.0
290
     0
  0
SCALE
  5
25E
102
{ACAD_REACTORS
330
251
102
}
330
251
100
AcDbScale
 70
     0
300
1" = 1'-0"
140
1.0
141
12.0
290
     0
  0
SCALE
  5
25F
102
{ACAD_REACTORS
330
251
102
}
330
251
100
AcDbScale
 70
     0
300
1-1/2" = 1'-0"
140
1.5
141
12.0
290
     0
  0
SCALE
  5
260
102
{ACAD_REACTORS
330
251
102
}
330
251
100
AcDbScale
 70
     0
300
3" = 1'-0"
140
3.0
141
12.0
290
     0
  0
SCALE
  5
261
102
{ACAD_REACTORS
330
251
102
}
330
251
100
AcDbScale
 70
     0
300
6" = 1'-0"
140
6.0
141
12.0
290
     0
  0
SCALE
  5
262
102
{ACAD_REACTORS
330
251
102
}
330
251
100
AcDbScale
 70
     0
300
1'-0" = 1'-0"
140
12.0
141
12.0
290
     0
  0
ACDBSECTIONVIEWSTYLE
  5
277
102
{ACAD_XDICTIONARY
360
2E7
102
}
102
{ACAD_REACTORS
330
276
102
}
330
276
100
AcDbModelDocViewStyle
 70
     0
  3
Imperial24
290
     0
100
AcDbSectionViewStyle
 70
     0
 71
     0
 90
       78
 71
     1
340
264
 40
0.24
340
0
340
0
 40
0.24
300
I, O, Q, S, X, Z
 40
0.48
 90
        3
 40
0.18
 90
        1
 71
     2
340
26B
 90
       25
340
26B
 90
       50
 40
0.24
 40
0.0
 40
0.24
 71
     3
340
264
 40
0.24
 90
        1
 40
0.75
 90
        1
300
%<\AcVar ViewType \f "%tc1">% %<\AcVar ViewSectionStartId>%-%<\AcVar ViewSectionEndId>%\PSCALE %<\AcVar ViewScale \f "%sn">%
 71
     4
300
ANSI31
 40
1.0
 90
        0
290
     0
290
     0
 90
        6
 40
0.0
 40
1.570796326794896
 40
0.2617993877991494
 40
1.308996938995747
 40
-0.2617993877991494
 40
1.832595714594046
  0
TABLESTYLE
  5
273
102
{ACAD_XDICTIONARY
360
2AE
102
}
102
{ACAD_REACTORS
330
272
102
}
330
272
100
AcDbTableStyle
  3
Standard
 70
     0
 71
     0
 40
0.06
 41
0.06
280
     0
281
     0
  7
STANDARD
140
0.18
170
     2
 62
     0
 63
     7
283
     0
274
    -2
284
     1
 64
     0
275
    -2
285
     1
 65
     0
276
    -2
286
     1
 66
     0
277
    -2
287
     1
 67
     0
278
    -2
288
     1
 68
     0
279
    -2
289
     1
 69
     0
  7
STANDARD
140
0.25
170
     5
 62
     0
 63
     7
283
     0
274
    -2
284
     1
 64
     0
275
    -2
285
     1
 65
     0
276
    -2
286
     1
 66
     0
277
    -2
287
     1
 67
     0
278
    -2
288
     1
 68
     0
279
    -2
289
     1
 69
     0
  7
STANDARD
140
0.18
170
     5
 62
     0
 63
     7
283
     0
274
    -2
284
     1
 64
     0
275
    -2
285
     1
 65
     0
276
    -2
286
     1
 66
     0
277
    -2
287
     1
 67
     0
278
    -2
288
     1
 68
     0
279
    -2
289
     1
 69
     0
  0
VISUALSTYLE
  5
23E
102
{ACAD_XDICTIONARY
360
2BF
102
}
102
{ACAD_REACTORS
330
238
102
}
330
238
100
AcDbVisualStyle
  2
2dWireframe
 70
     4
 71
     0
 72
     2
 73
     0
 90
        0
 40
-0.6
 41
-30.0
 62
     5
 63
     7
 74
     1
 91
        4
 64
     7
 65
   257
 75
     1
175
     1
 42
1.0
 92
        0
 66
   257
 43
1.0
 76
     1
 77
     6
 78
     2
 67
     7
 79
     5
170
     0
171
     0
290
     0
174
     0
 93
        1
 44
0.0
173
     0
291
     0
 45
0.0
1001
ACAD
1000
AcDbSavedByObjectVersion
1070
     0
  0
VISUALSTYLE
  5
23D
102
{ACAD_XDICTIONARY
360
2BD
102
}
102
{ACAD_REACTORS
330
238
102
}
330
238
100
AcDbVisualStyle
  2
Basic
 70
     7
 71
     1
 72
     0
 73
     1
 90
        0
 40
-0.6
 41
-30.0
 62
     5
 63
     7
 74
     0
 91
        4
 64
     7
 65
   257
 75
     1
175
     1
 42
1.0
 92
        8
 66
     7
 43
1.0
 76
     1
 77
     6
 78
     2
 67
     7
 79
     5
170
     0
171
     0
290
     0
174
     0
 93
        1
 44
0.0
173
     0
291
     1
 45
0.0
1001
ACAD
1000
AcDbSavedByObjectVersion
1070
     0
  0
VISUALSTYLE
  5
244
102
{ACAD_XDICTIONARY
360
2CB
102
}
102
{ACAD_REACTORS
330
238
102
}
330
238
100
AcDbVisualStyle
  2
Brighten
 70
    12
 71
     2
 72
     2
 73
     0
 90
        0
 40
-0.6
 41
-30.0
 62
     5
 63
     7
 74
     1
 91
        4
 64
     7
 65
   257
 75
     1
175
     1
 42
1.0
 92
        8
 66
     7
 43
1.0
 76
     1
 77
     6
 78
     2
 67
     7
 79
     5
170
     0
171
     0
290
     0
174
     0
 93
        1
 44
50.0
173
     0
291
     1
 45
0.0
1001
ACAD
1000
AcDbSavedByObjectVersion
1070
     0
  0
VISUALSTYLE
  5
248
102
{ACAD_XDICTIONARY
360
2D3
102
}
102
{ACAD_REACTORS
330
238
102
}
330
238
100
AcDbVisualStyle
  2
ColorChange
 70
    16
 71
     2
 72
     2
 73
     3
 90
        0
 40
-0.6
 41
-30.0
 62
     5
 63
     8
 74
     1
 91
        4
 64
     7
 65
   257
 75
     1
175
     1
 42
1.0
 92
        8
 66
     8
 43
1.0
 76
     1
 77
     6
 78
     2
 67
     7
 79
     5
170
     0
171
     0
290
     0
174
     0
 93
        1
 44
0.0
173
     0
291
     1
 45
0.0
1001
ACAD
1000
AcDbSavedByObjectVersion
1070
     0
  0
VISUALSTYLE
  5
241
102
{ACAD_XDICTIONARY
360
2C5
102
}
102
{ACAD_REACTORS
330
238
102
}
330
238
100
AcDbVisualStyle
  2
Conceptual
 70
     9
 71
     3
 72
     2
 73
     0
 90
        0
 40
-0.6
 41
-30.0
 62
     5
 63
     7
 74
     2
 91
        2
 64
     7
 65
   257
 75
     1
175
     1
 42
179.0
 92
        8
 66
     7
 43
1.0
 76
     1
 77
     6
 78
     2
 67
     7
 79
     3
170
     0
171
     0
290
     0
174
     0
 93
        1
 44
0.0
173
     0
291
     0
 45
0.0
1001
ACAD
1000
AcDbSavedByObjectVersion
1070
     0
  0
VISUALSTYLE
  5
243
102
{ACAD_XDICTIONARY
360
2C9
102
}
102
{ACAD_REACTORS
330
238
102
}
330
238
100
AcDbVisualStyle
  2
Dim
 70
    11
 71
     2
 72
     2
 73
     0
 90
        0
 40
-0.6
 41
-30.0
 62
     5
 63
     7
 74
     1
 91
        4
 64
     7
 65
   257
 75
     1
175
     1
 42
1.0
 92
        8
 66
     7
 43
1.0
 76
     1
 77
     6
 78
     2
 67
     7
 79
     5
170
     0
171
     0
290
     0
174
     0
 93
        1
 44
-50.0
173
     0
291
     1
 45
0.0
1001
ACAD
1000
AcDbSavedByObjectVersion
1070
     0
  0
VISUALSTYLE
  5
250
102
{ACAD_XDICTIONARY
360
2E3
102
}
102
{ACAD_REACTORS
330
238
102
}
330
238
100
AcDbVisualStyle
  2
EdgeColorOff
 70
    22
 71
     2
 72
     2
 73
     0
 90
        0
 40
-0.6
 41
-30.0
 62
     5
 63
     7
 74
     1
 91
        4
 64
     7
 65
   257
 75
     1
175
     1
 42
1.0
 92
        8
 66
     7
 43
1.0
 76
     1
 77
     6
 78
     2
 67
     7
 79
     5
170
     0
171
     0
290
     0
174
     0
 93
        1
 44
0.0
173
     0
291
     1
 45
0.0
1001
ACAD
1000
AcDbSavedByObjectVersion
1070
     0
  0
VISUALSTYLE
  5
247
102
{ACAD_XDICTIONARY
360
2D1
102
}
102
{ACAD_REACTORS
330
238
102
}
330
238
100
AcDbVisualStyle
  2
Facepattern
 70
    15
 71
     2
 72
     2
 73
     0
 90
        0
 40
-0.6
 41
-30.0
 62
     5
 63
     7
 74
     1
 91
        4
 64
     7
 65
   257
 75
     1
175
     1
 42
1.0
 92
        8
 66
     7
 43
1.0
 76
     1
 77
     6
 78
     2
 67
     7
 79
     5
170
     0
171
     0
290
     0
174
     0
 93
        1
 44
0.0
173
     0
291
     1
 45
0.0
1001
ACAD
1000
AcDbSavedByObjectVersion
1070
     0
  0
VISUALSTYLE
  5
239
102
{ACAD_XDICTIONARY
360
2B5
102
}
102
{ACAD_REACTORS
330
238
102
}
330
238
100
AcDbVisualStyle
  2
Flat
 70
     0
 71
     2
 72
     1
 73
     1
 90
        2
 40
-0.6
 41
30.0
 62
     5
 63
     7
 74
     0
 91
        0
 64
     7
 65
   257
 75
     1
175
     1
 42
1.0
 92
        8
 66
     7
 43
1.0
 76
     1
 77
     6
 78
     2
 67
     7
 79
     5
170
     0
171
     0
290
     0
174
     0
 93
       13
 44
0.0
173
     0
291
     1
 45
0.0
1001
ACAD
1000
AcDbSavedByObjectVersion
1070
     0
  0
VISUALSTYLE
  5
23A
102
{ACAD_XDICTIONARY
360
2B7
102
}
102
{ACAD_REACTORS
330
238
102
}
330
238
100
AcDbVisualStyle
  2
FlatWithEdges
 70
     1
 71
     2
 72
     1
 73
     1
 90
        2
 40
-0.6
 41
30.0
 62
     5
 63
     7
 74
     1
 91
        0
 64
     7
 65
   257
 75
     1
175
     1
 42
1.0
 92
        0
 66
   257
 43
1.0
 76
     1
 77
     6
 78
     2
 67
     7
 79
     5
170
     0
171
     0
290
     0
174
     0
 93
       13
 44
0.0
173
     0
291
     1
 45
0.0
1001
ACAD
1000
AcDbSavedByObjectVersion
1070
     0
  0
VISUALSTYLE
  5
23B
102
{ACAD_XDICTIONARY
360
2B9
102
}
102
{ACAD_REACTORS
330
238
102
}
330
238
100
AcDbVisualStyle
  2
Gouraud
 70
     2
 71
     2
 72
     2
 73
     1
 90
        2
 40
-0.6
 41
30.0
 62
     5
 63
     7
 74
     0
 91
        0
 64
     7
 65
   257
 75
     1
175
     1
 42
1.0
 92
        0
 66
     7
 43
1.0
 76
     1
 77
     6
 78
     2
 67
     7
 79
     5
170
     0
171
     0
290
     0
174
     0
 93
       13
 44
0.0
173
     0
291
     1
 45
0.0
1001
ACAD
1000
AcDbSavedByObjectVersion
1070
     0
  0
VISUALSTYLE
  5
23C
102
{ACAD_XDICTIONARY
360
2BB
102
}
102
{ACAD_REACTORS
330
238
102
}
330
238
100
AcDbVisualStyle
  2
GouraudWithEdges
 70
     3
 71
     2
 72
     2
 73
     1
 90
        2
 40
-0.6
 41
30.0
 62
     5
 63
     7
 74
     1
 91
        0
 64
     7
 65
   257
 75
     1
175
     1
 42
1.0
 92
        0
 66
   257
 43
1.0
 76
     1
 77
     6
 78
     2
 67
     7
 79
     5
170
     0
171
     0
290
     0
174
     0
 93
       13
 44
0.0
173
     0
291
     1
 45
0.0
1001
ACAD
1000
AcDbSavedByObjectVersion
1070
     0
  0
VISUALSTYLE
  5
240
102
{ACAD_XDICTIONARY
360
2C3
102
}
102
{ACAD_REACTORS
330
238
102
}
330
238
100
AcDbVisualStyle
  2
Hidden
 70
     6
 71
     1
 72
     2
 73
     2
 90
        0
 40
-0.6
 41
-30.0
 62
     5
 63
     7
 74
     2
 91
        2
 64
     7
 65
   257
 75
     2
175
     1
 42
40.0
 92
        0
 66
   257
 43
1.0
 76
     1
 77
     6
 78
     2
 67
     7
 79
     3
170
     0
171
     0
290
     0
174
     0
 93
        1
 44
0.0
173
     0
291
     0
 45
0.0
1001
ACAD
1000
AcDbSavedByObjectVersion
1070
     0
  0
VISUALSTYLE
  5
24E
102
{ACAD_XDICTIONARY
360
2DF
102
}
102
{ACAD_REACTORS
330
238
102
}
330
238
100
AcDbVisualStyle
  2
JitterOff
 70
    20
 71
     2
 72
     2
 73
     0
 90
        0
 40
-0.6
 41
-30.0
 62
     5
 63
     7
 74
     1
 91
        4
 64
     7
 65
   257
 75
     1
175
     1
 42
1.0
 92
       10
 66
     7
 43
1.0
 76
     1
 77
     6
 78
     2
 67
     7
 79
     5
170
     0
171
     0
290
     0
174
     0
 93
        1
 44
0.0
173
     0
291
     1
 45
0.0
1001
ACAD
1000
AcDbSavedByObjectVersion
1070
     0
  0
VISUALSTYLE
  5
246
102
{ACAD_XDICTIONARY
360
2CF
102
}
102
{ACAD_REACTORS
330
238
102
}
330
238
100
AcDbVisualStyle
  2
Linepattern
 70
    14
 71
     2
 72
     2
 73
     0
 90
        0
 40
-0.6
 41
-30.0
 62
     5
 63
     7
 74
     1
 91
        4
 64
     7
 65
   257
 75
     7
175
     7
 42
1.0
 92
        8
 66
     7
 43
1.0
 76
     1
 77
     6
 78
     2
 67
     7
 79
     5
170
     0
171
     0
290
     0
174
     0
 93
        1
 44
0.0
173
     0
291
     1
 45
0.0
1001
ACAD
1000
AcDbSavedByObjectVersion
1070
     0
  0
VISUALSTYLE
  5
24F
102
{ACAD_XDICTIONARY
360
2E1
102
}
102
{ACAD_REACTORS
330
238
102
}
330
238
100
AcDbVisualStyle
  2
OverhangOff
 70
    21
 71
     2
 72
     2
 73
     0
 90
        0
 40
-0.6
 41
-30.0
 62
     5
 63
     7
 74
     1
 91
        4
 64
     7
 65
   257
 75
     1
175
     1
 42
1.0
 92
        9
 66
     7
 43
1.0
 76
     1
 77
     6
 78
     2
 67
     7
 79
     5
170
     0
171
     0
290
     0
174
     0
 93
        1
 44
0.0
173
     0
291
     1
 45
0.0
1001
ACAD
1000
AcDbSavedByObjectVersion
1070
     0
  0
VISUALSTYLE
  5
242
102
{ACAD_XDICTIONARY
360
2C7
102
}
102
{ACAD_REACTORS
330
238
102
}
330
238
100
AcDbVisualStyle
  2
Realistic
 70
     8
 71
     2
 72
     3
 73
     0
 90
        2
 40
-0.6
 41
30.0
 62
     5
 63
     7
 74
     0
 91
        0
 64
     7
 65
   257
 75
     1
175
     1
 42
1.0
 92
        8
 66
   257
 43
1.0
 76
     1
 77
     6
 78
     2
 67
     7
 79
     3
170
     0
171
     0
290
     0
174
     0
 93
       13
 44
0.0
173
     0
291
     0
 45
0.0
1001
ACAD
1000
AcDbSavedByObjectVersion
1070
     0
  0
VISUALSTYLE
  5
24D
102
{ACAD_XDICTIONARY
360
2DD
102
}
102
{ACAD_REACTORS
330
238
102
}
330
238
100
AcDbVisualStyle
  2
Shaded
 70
    27
 71
     2
 72
     2
 73
     1
 90
        2
 40
-0.6
 41
30.0
 62
     5
 63
     7
 74
     0
 91
        4
 64
     7
 65
   257
 75
     1
175
     1
 42
1.0
 92
        8
 66
   257
 43
1.0
 76
     1
 77
     6
 78
     2
 67
     8
 79
     3
170
     0
171
     0
290
     0
174
     0
 93
        5
 44
0.0
173
     0
291
     0
 45
0.0
1001
ACAD
1000
AcDbSavedByObjectVersion
1070
     0
  0
VISUALSTYLE
  5
24C
102
{ACAD_XDICTIONARY
360
2DB
102
}
102
{ACAD_REACTORS
330
238
102
}
330
238
100
AcDbVisualStyle
  2
Shaded with edges
 70
    26
 71
     2
 72
     2
 73
     1
 90
        2
 40
-0.6
 41
30.0
 62
     5
 63
     7
 74
     1
 91
       10
 64
     7
 65
   257
 75
     2
175
     1
 42
1.0
 92
        8
 66
   257
 43
1.0
 76
     1
 77
     6
 78
     2
 67
     7
 79
     3
170
     0
171
     0
290
     0
174
     0
 93
        5
 44
0.0
173
     0
291
     0
 45
0.0
1001
ACAD
1000
AcDbSavedByObjectVersion
1070
     0
  0
VISUALSTYLE
  5
249
102
{ACAD_XDICTIONARY
360
2D5
102
}
102
{ACAD_REACTORS
330
238
102
}
330
238
100
AcDbVisualStyle
  2
Shades of Gray
 70
    23
 71
     2
 72
     2
 73
     3
 90
        0
 40
-0.6
 41
-30.0
 62
     5
 63
     7
 74
     2
 91
        2
 64
     7
 65
     7
 75
     1
175
     1
 42
40.0
 92
        8
 66
     7
 43
1.0
 76
     1
 77
     6
 78
     2
 67
     7
 79
     3
170
     0
171
     0
290
     0
174
     0
 93
        1
 44
0.0
173
     0
291
     0
 45
0.0
1001
ACAD
1000
AcDbSavedByObjectVersion
1070
     0
  0
VISUALSTYLE
  5
24A
102
{ACAD_XDICTIONARY
360
2D7
102
}
102
{ACAD_REACTORS
330
238
102
}
330
238
100
AcDbVisualStyle
  2
Sketchy
 70
    24
 71
     1
 72
     2
 73
     2
 90
        0
 40
-0.6
 41
-30.0
 62
     5
 63
     7
 74
     2
 91
        2
 64
     7
 65
     7
 75
     1
175
     1
 42
40.0
 92
       11
 66
     7
 43
1.0
 76
     1
 77
     6
 78
     2
 67
     7
 79
     6
170
     0
171
     0
290
     0
174
     0
 93
        1
 44
0.0
173
     0
291
     0
 45
0.0
1001
ACAD
1000
AcDbSavedByObjectVersion
1070
     0
  0
VISUALSTYLE
  5
245
102
{ACAD_XDICTIONARY
360
2CD
102
}
102
{ACAD_REACTORS
330
238
102
}
330
238
100
AcDbVisualStyle
  2
Thicken
 70
    13
 71
     2
 72
     2
 73
     0
 90
        0
 40
-0.6
 41
-30.0
 62
     5
 63
     7
 74
     1
 91
        4
 64
     7
 65
   257
 75
     1
175
     1
 42
1.0
 92
       12
 66
     7
 43
1.0
 76
     1
 77
     6
 78
     2
 67
     7
 79
     5
170
     0
171
     0
290
     0
174
     0
 93
        1
 44
0.0
173
     0
291
     1
 45
0.0
1001
ACAD
1000
AcDbSavedByObjectVersion
1070
     0
  0
VISUALSTYLE
  5
23F
102
{ACAD_XDICTIONARY
360
2C1
102
}
102
{ACAD_REACTORS
330
238
102
}
330
238
100
AcDbVisualStyle
  2
Wireframe
 70
     5
 71
     0
 72
     2
 73
     0
 90
        0
 40
-0.6
 41
-30.0
 62
     5
 63
     7
 74
     1
 91
        4
 64
     7
 65
   257
 75
     1
175
     1
 42
1.0
 92
        0
 66
   257
 43
1.0
 76
     1
 77
     6
 78
     2
 67
     7
 79
     3
170
     0
171
     0
290
     0
174
     0
 93
        1
 44
0.0
173
     0
291
     0
 45
0.0
1001
ACAD
1000
AcDbSavedByObjectVersion
1070
     0
  0
VISUALSTYLE
  5
24B
102
{ACAD_XDICTIONARY
360
2D9
102
}
102
{ACAD_REACTORS
330
238
102
}
330
238
100
AcDbVisualStyle
  2
X-Ray
 70
    25
 71
     2
 72
     2
 73
     1
 90
        1
 40
0.5
 41
-30.0
 62
     5
 63
     7
 74
     1
 91
        0
 64
     7
 65
   257
 75
     1
175
     1
 42
1.0
 92
        8
 66
     7
 43
1.0
 76
     1
 77
     6
 78
     2
 67
     7
 79
     3
170
     0
171
     0
290
     0
174
     0
 93
       13
 44
0.0
173
     0
291
     0
 45
0.0
1001
ACAD
1000
AcDbSavedByObjectVersion
1070
     0
  0
DICTIONARYVAR
  5
2A8
102
{ACAD_REACTORS
330
2A3
102
}
330
2A3
100
DictionaryVariables
280
     0
  1
1:1
  0
DICTIONARYVAR
  5
2A5
102
{ACAD_REACTORS
330
2A3
102
}
330
2A3
100
DictionaryVariables
280
     0
  1
STANDARD
  0
DICTIONARYVAR
  5
2A4
102
{ACAD_REACTORS
330
2A3
102
}
330
2A3
100
DictionaryVariables
280
     0
  1
STANDARD
  0
DICTIONARYVAR
  5
2A6
102
{ACAD_REACTORS
330
2A3
102
}
330
2A3
100
DictionaryVariables
280
     0
  1
Imperial24
  0
DICTIONARYVAR
  5
2A7
102
{ACAD_REACTORS
330
2A3
102
}
330
2A3
100
DictionaryVariables
280
     0
  1
Imperial24
  0
DICTIONARYVAR
  5
2AB
102
{ACAD_REACTORS
330
2A3
102
}
330
2A3
100
DictionaryVariables
280
     0
  1
1
  0
DICTIONARYVAR
  5
2AA
102
{ACAD_REACTORS
330
2A3
102
}
330
2A3
100
DictionaryVariables
280
     0
  1
0
  0
DICTIONARYVAR
  5
2A9
102
{ACAD_REACTORS
330
2A3
102
}
330
2A3
100
DictionaryVariables
280
     0
  1
127
  0
DICTIONARYVAR
  5
2AC
102
{ACAD_REACTORS
330
2A3
102
}
330
2A3
100
DictionaryVariables
280
     0
  1
2
  0
DICTIONARY
  5
2E9
330
279
100
AcDbDictionary
280
     1
281
     1
  3
ACAD_XREC_ROUNDTRIP
360
2EA
  0
DICTIONARY
  5
2ED
330
281
100
AcDbDictionary
280
     1
281
     1
  3
ACAD_XREC_ROUNDTRIP
360
2EE
  0
DICTIONARY
  5
2EB
330
27D
100
AcDbDictionary
280
     1
281
     1
  3
ACAD_XREC_ROUNDTRIP
360
2EC
  0
DICTIONARY
  5
229
330
228
100
AcDbDictionary
280
     1
281
     1
  3
ACAD_XREC_ROUNDTRIP
360
2B3
  3
BUMPTILE
360
22B
  3
DIFFUSETILE
360
22A
  3
OPACITYTILE
360
22E
  3
REFLECTIONTILE
360
22D
  3
REFRACTIONTILE
360
22F
  3
SPECULARTILE
360
22C
  0
DICTIONARY
  5
221
330
220
100
AcDbDictionary
280
     1
281
     1
  3
ACAD_XREC_ROUNDTRIP
360
2B2
  3
BUMPTILE
360
223
  3
DIFFUSETILE
360
222
  3
OPACITYTILE
360
226
  3
REFLECTIONTILE
360
225
  3
REFRACTIONTILE
360
227
  3
SPECULARTILE
360
224
  0
DICTIONARY
  5
231
330
230
100
AcDbDictionary
280
     1
281
     1
  3
ACAD_XREC_ROUNDTRIP
360
2B4
  3
BUMPTILE
360
233
  3
DIFFUSETILE
360
232
  3
OPACITYTILE
360
236
  3
REFLECTIONTILE
360
235
  3
REFRACTIONTILE
360
237
  3
SPECULARTILE
360
234
  0
DICTIONARY
  5
2E7
330
277
100
AcDbDictionary
280
     1
281
     1
  3
ACAD_XREC_ROUNDTRIP
360
2E8
  0
DICTIONARY
  5
2AE
330
273
100
AcDbDictionary
280
     1
281
     1
  3
ACAD_ROUNDTRIP_2008_TABLESTYLE_CELLSTYLEMAP
360
2AF
  3
ACAD_XREC_ROUNDTRIP
360
2E5
  0
DICTIONARY
  5
2BF
330
23E
100
AcDbDictionary
280
     1
281
     1
  3
ACAD_XREC_ROUNDTRIP
360
2C0
  0
DICTIONARY
  5
2BD
330
23D
100
AcDbDictionary
280
     1
281
     1
  3
ACAD_XREC_ROUNDTRIP
360
2BE
  0
DICTIONARY
  5
2CB
330
244
100
AcDbDictionary
280
     1
281
     1
  3
ACAD_XREC_ROUNDTRIP
360
2CC
  0
DICTIONARY
  5
2D3
330
248
100
AcDbDictionary
280
     1
281
     1
  3
ACAD_XREC_ROUNDTRIP
360
2D4
  0
DICTIONARY
  5
2C5
330
241
100
AcDbDictionary
280
     1
281
     1
  3
ACAD_XREC_ROUNDTRIP
360
2C6
  0
DICTIONARY
  5
2C9
330
243
100
AcDbDictionary
280
     1
281
     1
  3
ACAD_XREC_ROUNDTRIP
360
2CA
  0
DICTIONARY
  5
2E3
330
250
100
AcDbDictionary
280
     1
281
     1
  3
ACAD_XREC_ROUNDTRIP
360
2E4
  0
DICTIONARY
  5
2D1
330
247
100
AcDbDictionary
280
     1
281
     1
  3
ACAD_XREC_ROUNDTRIP
360
2D2
  0
DICTIONARY
  5
2B5
330
239
100
AcDbDictionary
280
     1
281
     1
  3
ACAD_XREC_ROUNDTRIP
360
2B6
  0
DICTIONARY
  5
2B7
330
23A
100
AcDbDictionary
280
     1
281
     1
  3
ACAD_XREC_ROUNDTRIP
360
2B8
  0
DICTIONARY
  5
2B9
330
23B
100
AcDbDictionary
280
     1
281
     1
  3
ACAD_XREC_ROUNDTRIP
360
2BA
  0
DICTIONARY
  5
2BB
330
23C
100
AcDbDictionary
280
     1
281
     1
  3
ACAD_XREC_ROUNDTRIP
360
2BC
  0
DICTIONARY
  5
2C3
330
240
100
AcDbDictionary
280
     1
281
     1
  3
ACAD_XREC_ROUNDTRIP
360
2C4
  0
DICTIONARY
  5
2DF
330
24E
100
AcDbDictionary
280
     1
281
     1
  3
ACAD_XREC_ROUNDTRIP
360
2E0
  0
DICTIONARY
  5
2CF
330
246
100
AcDbDictionary
280
     1
281
     1
  3
ACAD_XREC_ROUNDTRIP
360
2D0
  0
DICTIONARY
  5
2E1
330
24F
100
AcDbDictionary
280
     1
281
     1
  3
ACAD_XREC_ROUNDTRIP
360
2E2
  0
DICTIONARY
  5
2C7
330
242
100
AcDbDictionary
280
     1
281
     1
  3
ACAD_XREC_ROUNDTRIP
360
2C8
  0
DICTIONARY
  5
2DD
330
24D
100
AcDbDictionary
280
     1
281
     1
  3
ACAD_XREC_ROUNDTRIP
360
2DE
  0
DICTIONARY
  5
2DB
330
24C
100
AcDbDictionary
280
     1
281
     1
  3
ACAD_XREC_ROUNDTRIP
360
2DC
  0
DICTIONARY
  5
2D5
330
249
100
AcDbDictionary
280
     1
281
     1
  3
ACAD_XREC_ROUNDTRIP
360
2D6
  0
DICTIONARY
  5
2D7
330
24A
100
AcDbDictionary
280
     1
281
     1
  3
ACAD_XREC_ROUNDTRIP
360
2D8
  0
DICTIONARY
  5
2CD
330
245
100
AcDbDictionary
280
     1
281
     1
  3
ACAD_XREC_ROUNDTRIP
360
2CE
  0
DICTIONARY
  5
2C1
330
23F
100
AcDbDictionary
280
     1
281
     1
  3
ACAD_XREC_ROUNDTRIP
360
2C2
  0
DICTIONARY
  5
2D9
330
24B
100
AcDbDictionary
280
     1
281
     1
  3
ACAD_XREC_ROUNDTRIP
360
2DA
  0
XRECORD
  5
2EA
102
{ACAD_REACTORS
330
2E9
102
}
330
2E9
100
AcDbXrecord
280
     1
102
DISPLAYNAME
  1
Imperial24
102
FLAGS
 90
        0
  0
XRECORD
  5
2EE
102
{ACAD_REACTORS
330
2ED
102
}
330
2ED
100
AcDbXrecord
280
     1
102
SHADEPLOT
 70
     0
102
SHADEPLOTRESLEVEL
 70
     2
102
SHADEPLOTCUSTOMDPI
 70
   300
  0
XRECORD
  5
2EC
102
{ACAD_REACTORS
330
2EB
102
}
330
2EB
100
AcDbXrecord
280
     1
102
SHADEPLOT
 70
     0
102
SHADEPLOTRESLEVEL
 70
     2
102
SHADEPLOTCUSTOMDPI
 70
   300
  0
XRECORD
  5
2B3
102
{ACAD_REACTORS
330
229
102
}
330
229
100
AcDbXrecord
280
     1
102
MATERIAL
148
0.0
149
0.0
149
0.0
 93
        0
 94
      127
282
     0
 72
     0
 77
     0
171
     0
175
     0
179
     0
273
     0
  0
XRECORD
  5
22B
102
{ACAD_REACTORS
330
229
102
}
330
229
100
AcDbXrecord
280
     1
270
     1
271
     1
  0
XRECORD
  5
22A
102
{ACAD_REACTORS
330
229
102
}
330
229
100
AcDbXrecord
280
     1
270
     1
271
     1
  0
XRECORD
  5
22E
102
{ACAD_REACTORS
330
229
102
}
330
229
100
AcDbXrecord
280
     1
270
     1
271
     1
  0
XRECORD
  5
22D
102
{ACAD_REACTORS
330
229
102
}
330
229
100
AcDbXrecord
280
     1
270
     1
271
     1
  0
XRECORD
  5
22F
102
{ACAD_REACTORS
330
229
102
}
330
229
100
AcDbXrecord
280
     1
270
     1
271
     1
  0
XRECORD
  5
22C
102
{ACAD_REACTORS
330
229
102
}
330
229
100
AcDbXrecord
280
     1
270
     1
271
     1
  0
XRECORD
  5
2B2
102
{ACAD_REACTORS
330
221
102
}
330
221
100
AcDbXrecord
280
     1
102
MATERIAL
148
0.0
149
0.0
149
0.0
 93
        0
 94
      127
282
     0
 72
     0
 77
     0
171
     0
175
     0
179
     0
273
     0
  0
XRECORD
  5
223
102
{ACAD_REACTORS
330
221
102
}
330
221
100
AcDbXrecord
280
     1
270
     1
271
     1
  0
XRECORD
  5
222
102
{ACAD_REACTORS
330
221
102
}
330
221
100
AcDbXrecord
280
     1
270
     1
271
     1
  0
XRECORD
  5
226
102
{ACAD_REACTORS
330
221
102
}
330
221
100
AcDbXrecord
280
     1
270
     1
271
     1
  0
XRECORD
  5
225
102
{ACAD_REACTORS
330
221
102
}
330
221
100
AcDbXrecord
280
     1
270
     1
271
     1
  0
XRECORD
  5
227
102
{ACAD_REACTORS
330
221
102
}
330
221
100
AcDbXrecord
280
     1
270
     1
271
     1
  0
XRECORD
  5
224
102
{ACAD_REACTORS
330
221
102
}
330
221
100
AcDbXrecord
280
     1
270
     1
271
     1
  0
XRECORD
  5
2B4
102
{ACAD_REACTORS
330
231
102
}
330
231
100
AcDbXrecord
280
     1
102
MATERIAL
148
0.0
149
0.0
149
0.0
 93
        0
 94
      127
282
     0
 72
     0
 77
     0
171
     0
175
     0
179
     0
273
     0
  0
XRECORD
  5
233
102
{ACAD_REACTORS
330
231
102
}
330
231
100
AcDbXrecord
280
     1
270
     1
271
     1
  0
XRECORD
  5
232
102
{ACAD_REACTORS
330
231
102
}
330
231
100
AcDbXrecord
280
     1
270
     1
271
     1
  0
XRECORD
  5
236
102
{ACAD_REACTORS
330
231
102
}
330
231
100
AcDbXrecord
280
     1
270
     1
271
     1
  0
XRECORD
  5
235
102
{ACAD_REACTORS
330
231
102
}
330
231
100
AcDbXrecord
280
     1
270
     1
271
     1
  0
XRECORD
  5
237
102
{ACAD_REACTORS
330
231
102
}
330
231
100
AcDbXrecord
280
     1
270
     1
271
     1
  0
XRECORD
  5
234
102
{ACAD_REACTORS
330
231
102
}
330
231
100
AcDbXrecord
280
     1
270
     1
271
     1
  0
XRECORD
  5
2E8
102
{ACAD_REACTORS
330
2E7
102
}
330
2E7
100
AcDbXrecord
280
     1
102
DISPLAYNAME
  1
Imperial24
102
FLAGS
 90
        0
  0
CELLSTYLEMAP
  5
2AF
102
{ACAD_REACTORS
330
2AE
102
}
330
2AE
100
AcDbCellStyleMap
 90
        3
300
CELLSTYLE
  1
TABLEFORMAT_BEGIN
 90
        5
170
     1
 91
        0
 92
    32768
 62
   257
 93
        1
300
CONTENTFORMAT
  1
CONTENTFORMAT_BEGIN
 90
        0
 91
        0
 92
      512
 93
        0
300

 40
0.0
140
1.0
 94
        5
 62
     0
340
264
144
0.25
309
CONTENTFORMAT_END
171
     0
 94
        0
309
TABLEFORMAT_END
  1
CELLSTYLE_BEGIN
 90
        1
 91
        1
300
_TITLE
309
CELLSTYLE_END
300
CELLSTYLE
  1
TABLEFORMAT_BEGIN
 90
        5
170
     1
 91
        0
 92
        0
 62
   257
 93
        1
300
CONTENTFORMAT
  1
CONTENTFORMAT_BEGIN
 90
        0
 91
        0
 92
      512
 93
        0
300

 40
0.0
140
1.0
 94
        5
 62
     0
340
264
144
0.18
309
CONTENTFORMAT_END
171
     0
 94
        0
309
TABLEFORMAT_END
  1
CELLSTYLE_BEGIN
 90
        2
 91
        1
300
_HEADER
309
CELLSTYLE_END
300
CELLSTYLE
  1
TABLEFORMAT_BEGIN
 90
        5
170
     1
 91
        0
 92
        0
 62
   257
 93
        1
300
CONTENTFORMAT
  1
CONTENTFORMAT_BEGIN
 90
        0
 91
        0
 92
      512
 93
        0
300

 40
0.0
140
1.0
 94
        2
 62
     0
340
264
144
0.18
309
CONTENTFORMAT_END
171
     0
 94
        0
309
TABLEFORMAT_END
  1
CELLSTYLE_BEGIN
 90
        3
 91
        2
300
_DATA
309
CELLSTYLE_END
  0
XRECORD
  5
2E5
102
{ACAD_REACTORS
330
2AE
102
}
330
2AE
100
AcDbXrecord
280
     1
102
ACAD_ROUNDTRIP_PRE2007_TABLESTYLE
 90
      512
 91
        0
  1

 92
      512
 93
        0
  2

 94
      512
 95
        0
  3

  0
XRECORD
  5
2C0
102
{ACAD_REACTORS
330
2BF
102
}
330
2BF
100
AcDbXrecord
280
     1
102
RTVSPost2010Prop28
280
     1
102
RTVSPost2010PropOp28
 70
     1
102
RTVSPost2010Prop29
280
     1
102
RTVSPost2010PropOp29
 70
     1
102
RTVSPost2010Prop30
280
     0
102
RTVSPost2010PropOp30
 70
     1
102
RTVSPost2010Prop31
280
     0
102
RTVSPost2010PropOp31
 70
     1
102
RTVSPost2010Prop32
280
     0
102
RTVSPost2010PropOp32
 70
     1
102
RTVSPost2010Prop33
280
     0
102
RTVSPost2010PropOp33
 70
     1
102
RTVSPost2010Prop34
280
     0
102
RTVSPost2010PropOp34
 70
     1
102
RTVSPost2010Prop35
280
     0
102
RTVSPost2010PropOp35
 70
     1
102
RTVSPost2010Prop36
280
     0
102
RTVSPost2010PropOp36
 70
     1
102
RTVSPost2010Prop37
 90
       50
102
RTVSPost2010PropOp37
 70
     1
102
RTVSPost2010Prop38
140
0.0
102
RTVSPost2010PropOp38
 70
     1
102
RTVSPost2010Prop39
140
1.0
102
RTVSPost2010PropOp39
 70
     1
102
RTVSPost2010Prop40
 90
        0
102
RTVSPost2010PropOp40
 70
     1
102
RTVSPost2010Prop41ColorIndex
 90
       18
102
RTVSPost2010Prop41ColorRGB
 90
        0
102
RTVSPost2010PropOp41
 70
     1
102
RTVSPost2010Prop42
 90
       50
102
RTVSPost2010PropOp42
 70
     1
102
RTVSPost2010Prop43
 90
        3
102
RTVSPost2010PropOp43
 70
     1
102
RTVSPost2010Prop44ColorIndex
 90
        5
102
RTVSPost2010Prop44ColorRGB
 90
      255
102
RTVSPost2010PropOp44
 70
     1
102
RTVSPost2010Prop45
280
     0
102
RTVSPost2010PropOp45
 70
     1
102
RTVSPost2010Prop46
 90
       50
102
RTVSPost2010PropOp46
 70
     1
102
RTVSPost2010Prop47
 90
       50
102
RTVSPost2010PropOp47
 70
     1
102
RTVSPost2010Prop48
 90
       50
102
RTVSPost2010PropOp48
 70
     1
102
RTVSPost2010Prop49
280
     0
102
RTVSPost2010PropOp49
 70
     1
102
RTVSPost2010Prop50
 90
       50
102
RTVSPost2010PropOp50
 70
     1
102
RTVSPost2010Prop51ColorIndex
 90
      256
102
RTVSPost2010Prop51ColorRGB
 90
-16777216
102
RTVSPost2010PropOp51
 70
     0
102
RTVSPost2010Prop52
140
1.0
102
RTVSPost2010PropOp52
 70
     0
102
RTVSPost2010Prop53
 90
        2
102
RTVSPost2010PropOp53
 70
     1
102
RTVSPost2010Prop54
  1
strokes_ogs.tif
102
RTVSPost2010PropOp54
 70
     1
102
RTVSPost2010Prop55
280
     0
102
RTVSPost2010PropOp55
 70
     1
102
RTVSPost2010Prop56
140
1.0
102
RTVSPost2010PropOp56
 70
     1
102
RTVSPost2010Prop57
140
1.0
102
RTVSPost2010PropOp57
 70
     1
102
RTVSPropertyOp0
 70
     1
102
RTVSPropertyOp1
 70
     1
102
RTVSPropertyOp2
 70
     1
102
RTVSPropertyOp3
 70
     1
102
RTVSPropertyOp4
 70
     1
102
RTVSPropertyOp5
 70
     1
102
RTVSPropertyOp6
 70
     1
102
RTVSPropertyOp7
 70
     1
102
RTVSPropertyOp8
 70
     1
102
RTVSPropertyOp9
 70
     1
102
RTVSPropertyOp10
 70
     1
102
RTVSPropertyOp11
 70
     1
102
RTVSPropertyOp12
 70
     1
102
RTVSPropertyOp13
 70
     1
102
RTVSPropertyOp14
 70
     1
102
RTVSPropertyOp15
 70
     1
102
RTVSPropertyOp16
 70
     1
102
RTVSPropertyOp17
 70
     1
102
RTVSPropertyOp18
 70
     1
102
RTVSPropertyOp19
 70
     1
102
RTVSPropertyOp20
 70
     1
102
RTVSPropertyOp21
 70
     1
102
RTVSPropertyOp22
 70
     1
102
RTVSPropertyOp23
 70
     1
102
RTVSPropertyOp24
 70
     1
102
RTVSPropertyOp25
 70
     1
102
RTVSPropertyOp26
 70
     1
102
RTVSPropertyOp27
 70
     1
102
RTVSPropertyOp28
 70
     1
102
RTVSPropertyOp29
 70
     1
102
RTVSPropertyOp30
 70
     1
102
RTVSPropertyOp31
 70
     1
102
RTVSPropertyOp32
 70
     1
102
RTVSPropertyOp33
 70
     1
102
RTVSPropertyOp34
 70
     1
102
RTVSPropertyOp35
 70
     1
102
RTVSPropertyOp36
 70
     1
102
RTVSPropertyOp37
 70
     1
102
RTVSPropertyOp38
 70
     1
102
RTVSPropertyOp39
 70
     1
102
RTVSPropertyOp40
 70
     1
102
RTVSPropertyOp41
 70
     1
102
RTVSPropertyOp42
 70
     1
102
RTVSPropertyOp43
 70
     1
102
RTVSPropertyOp44
 70
     1
102
RTVSPropertyOp45
 70
     1
102
RTVSPropertyOp46
 70
     1
102
RTVSPropertyOp47
 70
     1
102
RTVSPropertyOp48
 70
     1
102
RTVSPropertyOp49
 70
     1
102
RTVSPropertyOp50
 70
     1
102
RTVSPropertyOp51
 70
     0
102
RTVSPropertyOp52
 70
     0
102
RTVSPropertyOp53
 70
     1
102
RTVSPropertyOp54
 70
     1
102
RTVSPropertyOp55
 70
     1
102
RTVSPropertyOp56
 70
     1
102
RTVSPropertyOp57
 70
     1
102
RTVSPropertyOp58
 70
     1
102
RTVSPropertyOp59
 70
     1
102
RTVSPropertyOp60
 70
     1
102
RTVSPropertyOp61
 70
     1
102
RTVSPropertyOp62
 70
     1
  0
XRECORD
  5
2BE
102
{ACAD_REACTORS
330
2BD
102
}
330
2BD
100
AcDbXrecord
280
     1
102
RTVSPost2010Prop28
280
     0
102
RTVSPost2010PropOp28
 70
     1
102
RTVSPost2010Prop29
280
     1
102
RTVSPost2010PropOp29
 70
     1
102
RTVSPost2010Prop30
280
     1
102
RTVSPost2010PropOp30
 70
     1
102
RTVSPost2010Prop31
280
     0
102
RTVSPost2010PropOp31
 70
     1
102
RTVSPost2010Prop32
280
     0
102
RTVSPost2010PropOp32
 70
     1
102
RTVSPost2010Prop33
280
     0
102
RTVSPost2010PropOp33
 70
     1
102
RTVSPost2010Prop34
280
     0
102
RTVSPost2010PropOp34
 70
     1
102
RTVSPost2010Prop35
280
     0
102
RTVSPost2010PropOp35
 70
     1
102
RTVSPost2010Prop36
280
     0
102
RTVSPost2010PropOp36
 70
     1
102
RTVSPost2010Prop37
 90
       50
102
RTVSPost2010PropOp37
 70
     1
102
RTVSPost2010Prop38
140
0.0
102
RTVSPost2010PropOp38
 70
     1
102
RTVSPost2010Prop39
140
1.0
102
RTVSPost2010PropOp39
 70
     1
102
RTVSPost2010Prop40
 90
        0
102
RTVSPost2010PropOp40
 70
     1
102
RTVSPost2010Prop41ColorIndex
 90
       18
102
RTVSPost2010Prop41ColorRGB
 90
        0
102
RTVSPost2010PropOp41
 70
     1
102
RTVSPost2010Prop42
 90
       50
102
RTVSPost2010PropOp42
 70
     1
102
RTVSPost2010Prop43
 90
        3
102
RTVSPost2010PropOp43
 70
     1
102
RTVSPost2010Prop44ColorIndex
 90
        5
102
RTVSPost2010Prop44ColorRGB
 90
      255
102
RTVSPost2010PropOp44
 70
     1
102
RTVSPost2010Prop45
280
     0
102
RTVSPost2010PropOp45
 70
     1
102
RTVSPost2010Prop46
 90
       50
102
RTVSPost2010PropOp46
 70
     1
102
RTVSPost2010Prop47
 90
       50
102
RTVSPost2010PropOp47
 70
     1
102
RTVSPost2010Prop48
 90
       50
102
RTVSPost2010PropOp48
 70
     1
102
RTVSPost2010Prop49
280
     0
102
RTVSPost2010PropOp49
 70
     1
102
RTVSPost2010Prop50
 90
       50
102
RTVSPost2010PropOp50
 70
     1
102
RTVSPost2010Prop51ColorIndex
 90
      256
102
RTVSPost2010Prop51ColorRGB
 90
-16777216
102
RTVSPost2010PropOp51
 70
     0
102
RTVSPost2010Prop52
140
1.0
102
RTVSPost2010PropOp52
 70
     0
102
RTVSPost2010Prop53
 90
        2
102
RTVSPost2010PropOp53
 70
     1
102
RTVSPost2010Prop54
  1
strokes_ogs.tif
102
RTVSPost2010PropOp54
 70
     1
102
RTVSPost2010Prop55
280
     0
102
RTVSPost2010PropOp55
 70
     1
102
RTVSPost2010Prop56
140
1.0
102
RTVSPost2010PropOp56
 70
     1
102
RTVSPost2010Prop57
140
1.0
102
RTVSPost2010PropOp57
 70
     1
102
RTVSPropertyOp0
 70
     1
102
RTVSPropertyOp1
 70
     1
102
RTVSPropertyOp2
 70
     1
102
RTVSPropertyOp3
 70
     1
102
RTVSPropertyOp4
 70
     1
102
RTVSPropertyOp5
 70
     1
102
RTVSPropertyOp6
 70
     1
102
RTVSPropertyOp7
 70
     1
102
RTVSPropertyOp8
 70
     1
102
RTVSPropertyOp9
 70
     1
102
RTVSPropertyOp10
 70
     1
102
RTVSPropertyOp11
 70
     1
102
RTVSPropertyOp12
 70
     1
102
RTVSPropertyOp13
 70
     1
102
RTVSPropertyOp14
 70
     1
102
RTVSPropertyOp15
 70
     1
102
RTVSPropertyOp16
 70
     1
102
RTVSPropertyOp17
 70
     1
102
RTVSPropertyOp18
 70
     1
102
RTVSPropertyOp19
 70
     1
102
RTVSPropertyOp20
 70
     1
102
RTVSPropertyOp21
 70
     1
102
RTVSPropertyOp22
 70
     1
102
RTVSPropertyOp23
 70
     1
102
RTVSPropertyOp24
 70
     1
102
RTVSPropertyOp25
 70
     1
102
RTVSPropertyOp26
 70
     1
102
RTVSPropertyOp27
 70
     1
102
RTVSPropertyOp28
 70
     1
102
RTVSPropertyOp29
 70
     1
102
RTVSPropertyOp30
 70
     1
102
RTVSPropertyOp31
 70
     1
102
RTVSPropertyOp32
 70
     1
102
RTVSPropertyOp33
 70
     1
102
RTVSPropertyOp34
 70
     1
102
RTVSPropertyOp35
 70
     1
102
RTVSPropertyOp36
 70
     1
102
RTVSPropertyOp37
 70
     1
102
RTVSPropertyOp38
 70
     1
102
RTVSPropertyOp39
 70
     1
102
RTVSPropertyOp40
 70
     1
102
RTVSPropertyOp41
 70
     1
102
RTVSPropertyOp42
 70
     1
102
RTVSPropertyOp43
 70
     1
102
RTVSPropertyOp44
 70
     1
102
RTVSPropertyOp45
 70
     1
102
RTVSPropertyOp46
 70
     1
102
RTVSPropertyOp47
 70
     1
102
RTVSPropertyOp48
 70
     1
102
RTVSPropertyOp49
 70
     1
102
RTVSPropertyOp50
 70
     1
102
RTVSPropertyOp51
 70
     0
102
RTVSPropertyOp52
 70
     0
102
RTVSPropertyOp53
 70
     1
102
RTVSPropertyOp54
 70
     1
102
RTVSPropertyOp55
 70
     1
102
RTVSPropertyOp56
 70
     1
102
RTVSPropertyOp57
 70
     1
102
RTVSPropertyOp58
 70
     1
102
RTVSPropertyOp59
 70
     1
102
RTVSPropertyOp60
 70
     1
102
RTVSPropertyOp61
 70
     1
102
RTVSPropertyOp62
 70
     1
  0
XRECORD
  5
2CC
102
{ACAD_REACTORS
330
2CB
102
}
330
2CB
100
AcDbXrecord
280
     1
102
RTVSPost2010Prop28
280
     0
102
RTVSPost2010PropOp28
 70
     1
102
RTVSPost2010Prop29
280
     1
102
RTVSPost2010PropOp29
 70
     1
102
RTVSPost2010Prop30
280
     1
102
RTVSPost2010PropOp30
 70
     1
102
RTVSPost2010Prop31
280
     0
102
RTVSPost2010PropOp31
 70
     1
102
RTVSPost2010Prop32
280
     0
102
RTVSPost2010PropOp32
 70
     1
102
RTVSPost2010Prop33
280
     0
102
RTVSPost2010PropOp33
 70
     1
102
RTVSPost2010Prop34
280
     0
102
RTVSPost2010PropOp34
 70
     1
102
RTVSPost2010Prop35
280
     0
102
RTVSPost2010PropOp35
 70
     1
102
RTVSPost2010Prop36
280
     0
102
RTVSPost2010PropOp36
 70
     1
102
RTVSPost2010Prop37
 90
       50
102
RTVSPost2010PropOp37
 70
     1
102
RTVSPost2010Prop38
140
0.0
102
RTVSPost2010PropOp38
 70
     1
102
RTVSPost2010Prop39
140
1.0
102
RTVSPost2010PropOp39
 70
     1
102
RTVSPost2010Prop40
 90
        0
102
RTVSPost2010PropOp40
 70
     1
102
RTVSPost2010Prop41ColorIndex
 90
       18
102
RTVSPost2010Prop41ColorRGB
 90
        0
102
RTVSPost2010PropOp41
 70
     1
102
RTVSPost2010Prop42
 90
       50
102
RTVSPost2010PropOp42
 70
     1
102
RTVSPost2010Prop43
 90
        3
102
RTVSPost2010PropOp43
 70
     1
102
RTVSPost2010Prop44ColorIndex
 90
        5
102
RTVSPost2010Prop44ColorRGB
 90
      255
102
RTVSPost2010PropOp44
 70
     1
102
RTVSPost2010Prop45
280
     0
102
RTVSPost2010PropOp45
 70
     1
102
RTVSPost2010Prop46
 90
       50
102
RTVSPost2010PropOp46
 70
     1
102
RTVSPost2010Prop47
 90
       50
102
RTVSPost2010PropOp47
 70
     1
102
RTVSPost2010Prop48
 90
       50
102
RTVSPost2010PropOp48
 70
     1
102
RTVSPost2010Prop49
280
     0
102
RTVSPost2010PropOp49
 70
     1
102
RTVSPost2010Prop50
 90
       50
102
RTVSPost2010PropOp50
 70
     1
102
RTVSPost2010Prop51ColorIndex
 90
      256
102
RTVSPost2010Prop51ColorRGB
 90
-16777216
102
RTVSPost2010PropOp51
 70
     0
102
RTVSPost2010Prop52
140
1.0
102
RTVSPost2010PropOp52
 70
     0
102
RTVSPost2010Prop53
 90
        2
102
RTVSPost2010PropOp53
 70
     1
102
RTVSPost2010Prop54
  1
strokes_ogs.tif
102
RTVSPost2010PropOp54
 70
     1
102
RTVSPost2010Prop55
280
     0
102
RTVSPost2010PropOp55
 70
     1
102
RTVSPost2010Prop56
140
1.0
102
RTVSPost2010PropOp56
 70
     1
102
RTVSPost2010Prop57
140
1.0
102
RTVSPost2010PropOp57
 70
     1
102
RTVSPropertyOp0
 70
     1
102
RTVSPropertyOp1
 70
     1
102
RTVSPropertyOp2
 70
     1
102
RTVSPropertyOp3
 70
     1
102
RTVSPropertyOp4
 70
     1
102
RTVSPropertyOp5
 70
     1
102
RTVSPropertyOp6
 70
     1
102
RTVSPropertyOp7
 70
     1
102
RTVSPropertyOp8
 70
     1
102
RTVSPropertyOp9
 70
     1
102
RTVSPropertyOp10
 70
     1
102
RTVSPropertyOp11
 70
     1
102
RTVSPropertyOp12
 70
     1
102
RTVSPropertyOp13
 70
     1
102
RTVSPropertyOp14
 70
     1
102
RTVSPropertyOp15
 70
     1
102
RTVSPropertyOp16
 70
     1
102
RTVSPropertyOp17
 70
     1
102
RTVSPropertyOp18
 70
     1
102
RTVSPropertyOp19
 70
     1
102
RTVSPropertyOp20
 70
     1
102
RTVSPropertyOp21
 70
     1
102
RTVSPropertyOp22
 70
     1
102
RTVSPropertyOp23
 70
     1
102
RTVSPropertyOp24
 70
     1
102
RTVSPropertyOp25
 70
     1
102
RTVSPropertyOp26
 70
     1
102
RTVSPropertyOp27
 70
     1
102
RTVSPropertyOp28
 70
     1
102
RTVSPropertyOp29
 70
     1
102
RTVSPropertyOp30
 70
     1
102
RTVSPropertyOp31
 70
     1
102
RTVSPropertyOp32
 70
     1
102
RTVSPropertyOp33
 70
     1
102
RTVSPropertyOp34
 70
     1
102
RTVSPropertyOp35
 70
     1
102
RTVSPropertyOp36
 70
     1
102
RTVSPropertyOp37
 70
     1
102
RTVSPropertyOp38
 70
     1
102
RTVSPropertyOp39
 70
     1
102
RTVSPropertyOp40
 70
     1
102
RTVSPropertyOp41
 70
     1
102
RTVSPropertyOp42
 70
     1
102
RTVSPropertyOp43
 70
     1
102
RTVSPropertyOp44
 70
     1
102
RTVSPropertyOp45
 70
     1
102
RTVSPropertyOp46
 70
     1
102
RTVSPropertyOp47
 70
     1
102
RTVSPropertyOp48
 70
     1
102
RTVSPropertyOp49
 70
     1
102
RTVSPropertyOp50
 70
     1
102
RTVSPropertyOp51
 70
     0
102
RTVSPropertyOp52
 70
     0
102
RTVSPropertyOp53
 70
     1
102
RTVSPropertyOp54
 70
     1
102
RTVSPropertyOp55
 70
     1
102
RTVSPropertyOp56
 70
     1
102
RTVSPropertyOp57
 70
     1
102
RTVSPropertyOp58
 70
     1
102
RTVSPropertyOp59
 70
     1
102
RTVSPropertyOp60
 70
     1
102
RTVSPropertyOp61
 70
     1
102
RTVSPropertyOp62
 70
     1
  0
XRECORD
  5
2D4
102
{ACAD_REACTORS
330
2D3
102
}
330
2D3
100
AcDbXrecord
280
     1
102
RTVSPost2010Prop28
280
     0
102
RTVSPost2010PropOp28
 70
     1
102
RTVSPost2010Prop29
280
     1
102
RTVSPost2010PropOp29
 70
     1
102
RTVSPost2010Prop30
280
     1
102
RTVSPost2010PropOp30
 70
     1
102
RTVSPost2010Prop31
280
     0
102
RTVSPost2010PropOp31
 70
     1
102
RTVSPost2010Prop32
280
     0
102
RTVSPost2010PropOp32
 70
     1
102
RTVSPost2010Prop33
280
     0
102
RTVSPost2010PropOp33
 70
     1
102
RTVSPost2010Prop34
280
     0
102
RTVSPost2010PropOp34
 70
     1
102
RTVSPost2010Prop35
280
     0
102
RTVSPost2010PropOp35
 70
     1
102
RTVSPost2010Prop36
280
     0
102
RTVSPost2010PropOp36
 70
     1
102
RTVSPost2010Prop37
 90
       50
102
RTVSPost2010PropOp37
 70
     1
102
RTVSPost2010Prop38
140
0.0
102
RTVSPost2010PropOp38
 70
     1
102
RTVSPost2010Prop39
140
1.0
102
RTVSPost2010PropOp39
 70
     1
102
RTVSPost2010Prop40
 90
        0
102
RTVSPost2010PropOp40
 70
     1
102
RTVSPost2010Prop41ColorIndex
 90
       18
102
RTVSPost2010Prop41ColorRGB
 90
        0
102
RTVSPost2010PropOp41
 70
     1
102
RTVSPost2010Prop42
 90
       50
102
RTVSPost2010PropOp42
 70
     1
102
RTVSPost2010Prop43
 90
        3
102
RTVSPost2010PropOp43
 70
     1
102
RTVSPost2010Prop44ColorIndex
 90
        5
102
RTVSPost2010Prop44ColorRGB
 90
      255
102
RTVSPost2010PropOp44
 70
     1
102
RTVSPost2010Prop45
280
     0
102
RTVSPost2010PropOp45
 70
     1
102
RTVSPost2010Prop46
 90
       50
102
RTVSPost2010PropOp46
 70
     1
102
RTVSPost2010Prop47
 90
       50
102
RTVSPost2010PropOp47
 70
     1
102
RTVSPost2010Prop48
 90
       50
102
RTVSPost2010PropOp48
 70
     1
102
RTVSPost2010Prop49
280
     0
102
RTVSPost2010PropOp49
 70
     1
102
RTVSPost2010Prop50
 90
       50
102
RTVSPost2010PropOp50
 70
     1
102
RTVSPost2010Prop51ColorIndex
 90
      256
102
RTVSPost2010Prop51ColorRGB
 90
-16777216
102
RTVSPost2010PropOp51
 70
     0
102
RTVSPost2010Prop52
140
1.0
102
RTVSPost2010PropOp52
 70
     0
102
RTVSPost2010Prop53
 90
        2
102
RTVSPost2010PropOp53
 70
     1
102
RTVSPost2010Prop54
  1
strokes_ogs.tif
102
RTVSPost2010PropOp54
 70
     1
102
RTVSPost2010Prop55
280
     0
102
RTVSPost2010PropOp55
 70
     1
102
RTVSPost2010Prop56
140
1.0
102
RTVSPost2010PropOp56
 70
     1
102
RTVSPost2010Prop57
140
1.0
102
RTVSPost2010PropOp57
 70
     1
102
RTVSPropertyOp0
 70
     1
102
RTVSPropertyOp1
 70
     1
102
RTVSPropertyOp2
 70
     1
102
RTVSPropertyOp3
 70
     1
102
RTVSPropertyOp4
 70
     1
102
RTVSPropertyOp5
 70
     1
102
RTVSPropertyOp6
 70
     1
102
RTVSPropertyOp7
 70
     1
102
RTVSPropertyOp8
 70
     1
102
RTVSPropertyOp9
 70
     1
102
RTVSPropertyOp10
 70
     1
102
RTVSPropertyOp11
 70
     1
102
RTVSPropertyOp12
 70
     1
102
RTVSPropertyOp13
 70
     1
102
RTVSPropertyOp14
 70
     1
102
RTVSPropertyOp15
 70
     1
102
RTVSPropertyOp16
 70
     1
102
RTVSPropertyOp17
 70
     1
102
RTVSPropertyOp18
 70
     1
102
RTVSPropertyOp19
 70
     1
102
RTVSPropertyOp20
 70
     1
102
RTVSPropertyOp21
 70
     1
102
RTVSPropertyOp22
 70
     1
102
RTVSPropertyOp23
 70
     1
102
RTVSPropertyOp24
 70
     1
102
RTVSPropertyOp25
 70
     1
102
RTVSPropertyOp26
 70
     1
102
RTVSPropertyOp27
 70
     1
102
RTVSPropertyOp28
 70
     1
102
RTVSPropertyOp29
 70
     1
102
RTVSPropertyOp30
 70
     1
102
RTVSPropertyOp31
 70
     1
102
RTVSPropertyOp32
 70
     1
102
RTVSPropertyOp33
 70
     1
102
RTVSPropertyOp34
 70
     1
102
RTVSPropertyOp35
 70
     1
102
RTVSPropertyOp36
 70
     1
102
RTVSPropertyOp37
 70
     1
102
RTVSPropertyOp38
 70
     1
102
RTVSPropertyOp39
 70
     1
102
RTVSPropertyOp40
 70
     1
102
RTVSPropertyOp41
 70
     1
102
RTVSPropertyOp42
 70
     1
102
RTVSPropertyOp43
 70
     1
102
RTVSPropertyOp44
 70
     1
102
RTVSPropertyOp45
 70
     1
102
RTVSPropertyOp46
 70
     1
102
RTVSPropertyOp47
 70
     1
102
RTVSPropertyOp48
 70
     1
102
RTVSPropertyOp49
 70
     1
102
RTVSPropertyOp50
 70
     1
102
RTVSPropertyOp51
 70
     0
102
RTVSPropertyOp52
 70
     0
102
RTVSPropertyOp53
 70
     1
102
RTVSPropertyOp54
 70
     1
102
RTVSPropertyOp55
 70
     1
102
RTVSPropertyOp56
 70
     1
102
RTVSPropertyOp57
 70
     1
102
RTVSPropertyOp58
 70
     1
102
RTVSPropertyOp59
 70
     1
102
RTVSPropertyOp60
 70
     1
102
RTVSPropertyOp61
 70
     1
102
RTVSPropertyOp62
 70
     1
  0
XRECORD
  5
2C6
102
{ACAD_REACTORS
330
2C5
102
}
330
2C5
100
AcDbXrecord
280
     1
102
RTVSPost2010Prop28
280
     0
102
RTVSPost2010PropOp28
 70
     1
102
RTVSPost2010Prop29
280
     1
102
RTVSPost2010PropOp29
 70
     1
102
RTVSPost2010Prop30
280
     1
102
RTVSPost2010PropOp30
 70
     1
102
RTVSPost2010Prop31
280
     0
102
RTVSPost2010PropOp31
 70
     1
102
RTVSPost2010Prop32
280
     0
102
RTVSPost2010PropOp32
 70
     1
102
RTVSPost2010Prop33
280
     0
102
RTVSPost2010PropOp33
 70
     1
102
RTVSPost2010Prop34
280
     0
102
RTVSPost2010PropOp34
 70
     1
102
RTVSPost2010Prop35
280
     0
102
RTVSPost2010PropOp35
 70
     1
102
RTVSPost2010Prop36
280
     0
102
RTVSPost2010PropOp36
 70
     1
102
RTVSPost2010Prop37
 90
       50
102
RTVSPost2010PropOp37
 70
     1
102
RTVSPost2010Prop38
140
0.0
102
RTVSPost2010PropOp38
 70
     1
102
RTVSPost2010Prop39
140
1.0
102
RTVSPost2010PropOp39
 70
     1
102
RTVSPost2010Prop40
 90
        0
102
RTVSPost2010PropOp40
 70
     1
102
RTVSPost2010Prop41ColorIndex
 90
       18
102
RTVSPost2010Prop41ColorRGB
 90
        0
102
RTVSPost2010PropOp41
 70
     1
102
RTVSPost2010Prop42
 90
       50
102
RTVSPost2010PropOp42
 70
     1
102
RTVSPost2010Prop43
 90
        3
102
RTVSPost2010PropOp43
 70
     1
102
RTVSPost2010Prop44ColorIndex
 90
        5
102
RTVSPost2010Prop44ColorRGB
 90
      255
102
RTVSPost2010PropOp44
 70
     1
102
RTVSPost2010Prop45
280
     0
102
RTVSPost2010PropOp45
 70
     1
102
RTVSPost2010Prop46
 90
       50
102
RTVSPost2010PropOp46
 70
     1
102
RTVSPost2010Prop47
 90
       50
102
RTVSPost2010PropOp47
 70
     1
102
RTVSPost2010Prop48
 90
       50
102
RTVSPost2010PropOp48
 70
     1
102
RTVSPost2010Prop49
280
     0
102
RTVSPost2010PropOp49
 70
     1
102
RTVSPost2010Prop50
 90
       50
102
RTVSPost2010PropOp50
 70
     1
102
RTVSPost2010Prop51ColorIndex
 90
      256
102
RTVSPost2010Prop51ColorRGB
 90
-16777216
102
RTVSPost2010PropOp51
 70
     0
102
RTVSPost2010Prop52
140
1.0
102
RTVSPost2010PropOp52
 70
     0
102
RTVSPost2010Prop53
 90
        2
102
RTVSPost2010PropOp53
 70
     1
102
RTVSPost2010Prop54
  1
strokes_ogs.tif
102
RTVSPost2010PropOp54
 70
     1
102
RTVSPost2010Prop55
280
     0
102
RTVSPost2010PropOp55
 70
     1
102
RTVSPost2010Prop56
140
1.0
102
RTVSPost2010PropOp56
 70
     1
102
RTVSPost2010Prop57
140
1.0
102
RTVSPost2010PropOp57
 70
     1
102
RTVSPropertyOp0
 70
     1
102
RTVSPropertyOp1
 70
     1
102
RTVSPropertyOp2
 70
     1
102
RTVSPropertyOp3
 70
     1
102
RTVSPropertyOp4
 70
     1
102
RTVSPropertyOp5
 70
     1
102
RTVSPropertyOp6
 70
     1
102
RTVSPropertyOp7
 70
     1
102
RTVSPropertyOp8
 70
     1
102
RTVSPropertyOp9
 70
     1
102
RTVSPropertyOp10
 70
     1
102
RTVSPropertyOp11
 70
     1
102
RTVSPropertyOp12
 70
     1
102
RTVSPropertyOp13
 70
     1
102
RTVSPropertyOp14
 70
     1
102
RTVSPropertyOp15
 70
     1
102
RTVSPropertyOp16
 70
     1
102
RTVSPropertyOp17
 70
     1
102
RTVSPropertyOp18
 70
     1
102
RTVSPropertyOp19
 70
     1
102
RTVSPropertyOp20
 70
     1
102
RTVSPropertyOp21
 70
     1
102
RTVSPropertyOp22
 70
     1
102
RTVSPropertyOp23
 70
     1
102
RTVSPropertyOp24
 70
     1
102
RTVSPropertyOp25
 70
     1
102
RTVSPropertyOp26
 70
     1
102
RTVSPropertyOp27
 70
     1
102
RTVSPropertyOp28
 70
     1
102
RTVSPropertyOp29
 70
     1
102
RTVSPropertyOp30
 70
     1
102
RTVSPropertyOp31
 70
     1
102
RTVSPropertyOp32
 70
     1
102
RTVSPropertyOp33
 70
     1
102
RTVSPropertyOp34
 70
     1
102
RTVSPropertyOp35
 70
     1
102
RTVSPropertyOp36
 70
     1
102
RTVSPropertyOp37
 70
     1
102
RTVSPropertyOp38
 70
     1
102
RTVSPropertyOp39
 70
     1
102
RTVSPropertyOp40
 70
     1
102
RTVSPropertyOp41
 70
     1
102
RTVSPropertyOp42
 70
     1
102
RTVSPropertyOp43
 70
     1
102
RTVSPropertyOp44
 70
     1
102
RTVSPropertyOp45
 70
     1
102
RTVSPropertyOp46
 70
     1
102
RTVSPropertyOp47
 70
     1
102
RTVSPropertyOp48
 70
     1
102
RTVSPropertyOp49
 70
     1
102
RTVSPropertyOp50
 70
     1
102
RTVSPropertyOp51
 70
     0
102
RTVSPropertyOp52
 70
     0
102
RTVSPropertyOp53
 70
     1
102
RTVSPropertyOp54
 70
     1
102
RTVSPropertyOp55
 70
     1
102
RTVSPropertyOp56
 70
     1
102
RTVSPropertyOp57
 70
     1
102
RTVSPropertyOp58
 70
     1
102
RTVSPropertyOp59
 70
     1
102
RTVSPropertyOp60
 70
     1
102
RTVSPropertyOp61
 70
     1
102
RTVSPropertyOp62
 70
     1
  0
XRECORD
  5
2CA
102
{ACAD_REACTORS
330
2C9
102
}
330
2C9
100
AcDbXrecord
280
     1
102
RTVSPost2010Prop28
280
     0
102
RTVSPost2010PropOp28
 70
     1
102
RTVSPost2010Prop29
280
     1
102
RTVSPost2010PropOp29
 70
     1
102
RTVSPost2010Prop30
280
     1
102
RTVSPost2010PropOp30
 70
     1
102
RTVSPost2010Prop31
280
     0
102
RTVSPost2010PropOp31
 70
     1
102
RTVSPost2010Prop32
280
     0
102
RTVSPost2010PropOp32
 70
     1
102
RTVSPost2010Prop33
280
     0
102
RTVSPost2010PropOp33
 70
     1
102
RTVSPost2010Prop34
280
     0
102
RTVSPost2010PropOp34
 70
     1
102
RTVSPost2010Prop35
280
     0
102
RTVSPost2010PropOp35
 70
     1
102
RTVSPost2010Prop36
280
     0
102
RTVSPost2010PropOp36
 70
     1
102
RTVSPost2010Prop37
 90
       50
102
RTVSPost2010PropOp37
 70
     1
102
RTVSPost2010Prop38
140
0.0
102
RTVSPost2010PropOp38
 70
     1
102
RTVSPost2010Prop39
140
1.0
102
RTVSPost2010PropOp39
 70
     1
102
RTVSPost2010Prop40
 90
        0
102
RTVSPost2010PropOp40
 70
     1
102
RTVSPost2010Prop41ColorIndex
 90
       18
102
RTVSPost2010Prop41ColorRGB
 90
        0
102
RTVSPost2010PropOp41
 70
     1
102
RTVSPost2010Prop42
 90
       50
102
RTVSPost2010PropOp42
 70
     1
102
RTVSPost2010Prop43
 90
        3
102
RTVSPost2010PropOp43
 70
     1
102
RTVSPost2010Prop44ColorIndex
 90
        5
102
RTVSPost2010Prop44ColorRGB
 90
      255
102
RTVSPost2010PropOp44
 70
     1
102
RTVSPost2010Prop45
280
     0
102
RTVSPost2010PropOp45
 70
     1
102
RTVSPost2010Prop46
 90
       50
102
RTVSPost2010PropOp46
 70
     1
102
RTVSPost2010Prop47
 90
       50
102
RTVSPost2010PropOp47
 70
     1
102
RTVSPost2010Prop48
 90
       50
102
RTVSPost2010PropOp48
 70
     1
102
RTVSPost2010Prop49
280
     0
102
RTVSPost2010PropOp49
 70
     1
102
RTVSPost2010Prop50
 90
       50
102
RTVSPost2010PropOp50
 70
     1
102
RTVSPost2010Prop51ColorIndex
 90
      256
102
RTVSPost2010Prop51ColorRGB
 90
-16777216
102
RTVSPost2010PropOp51
 70
     0
102
RTVSPost2010Prop52
140
1.0
102
RTVSPost2010PropOp52
 70
     0
102
RTVSPost2010Prop53
 90
        2
102
RTVSPost2010PropOp53
 70
     1
102
RTVSPost2010Prop54
  1
strokes_ogs.tif
102
RTVSPost2010PropOp54
 70
     1
102
RTVSPost2010Prop55
280
     0
102
RTVSPost2010PropOp55
 70
     1
102
RTVSPost2010Prop56
140
1.0
102
RTVSPost2010PropOp56
 70
     1
102
RTVSPost2010Prop57
140
1.0
102
RTVSPost2010PropOp57
 70
     1
102
RTVSPropertyOp0
 70
     1
102
RTVSPropertyOp1
 70
     1
102
RTVSPropertyOp2
 70
     1
102
RTVSPropertyOp3
 70
     1
102
RTVSPropertyOp4
 70
     1
102
RTVSPropertyOp5
 70
     1
102
RTVSPropertyOp6
 70
     1
102
RTVSPropertyOp7
 70
     1
102
RTVSPropertyOp8
 70
     1
102
RTVSPropertyOp9
 70
     1
102
RTVSPropertyOp10
 70
     1
102
RTVSPropertyOp11
 70
     1
102
RTVSPropertyOp12
 70
     1
102
RTVSPropertyOp13
 70
     1
102
RTVSPropertyOp14
 70
     1
102
RTVSPropertyOp15
 70
     1
102
RTVSPropertyOp16
 70
     1
102
RTVSPropertyOp17
 70
     1
102
RTVSPropertyOp18
 70
     1
102
RTVSPropertyOp19
 70
     1
102
RTVSPropertyOp20
 70
     1
102
RTVSPropertyOp21
 70
     1
102
RTVSPropertyOp22
 70
     1
102
RTVSPropertyOp23
 70
     1
102
RTVSPropertyOp24
 70
     1
102
RTVSPropertyOp25
 70
     1
102
RTVSPropertyOp26
 70
     1
102
RTVSPropertyOp27
 70
     1
102
RTVSPropertyOp28
 70
     1
102
RTVSPropertyOp29
 70
     1
102
RTVSPropertyOp30
 70
     1
102
RTVSPropertyOp31
 70
     1
102
RTVSPropertyOp32
 70
     1
102
RTVSPropertyOp33
 70
     1
102
RTVSPropertyOp34
 70
     1
102
RTVSPropertyOp35
 70
     1
102
RTVSPropertyOp36
 70
     1
102
RTVSPropertyOp37
 70
     1
102
RTVSPropertyOp38
 70
     1
102
RTVSPropertyOp39
 70
     1
102
RTVSPropertyOp40
 70
     1
102
RTVSPropertyOp41
 70
     1
102
RTVSPropertyOp42
 70
     1
102
RTVSPropertyOp43
 70
     1
102
RTVSPropertyOp44
 70
     1
102
RTVSPropertyOp45
 70
     1
102
RTVSPropertyOp46
 70
     1
102
RTVSPropertyOp47
 70
     1
102
RTVSPropertyOp48
 70
     1
102
RTVSPropertyOp49
 70
     1
102
RTVSPropertyOp50
 70
     1
102
RTVSPropertyOp51
 70
     0
102
RTVSPropertyOp52
 70
     0
102
RTVSPropertyOp53
 70
     1
102
RTVSPropertyOp54
 70
     1
102
RTVSPropertyOp55
 70
     1
102
RTVSPropertyOp56
 70
     1
102
RTVSPropertyOp57
 70
     1
102
RTVSPropertyOp58
 70
     1
102
RTVSPropertyOp59
 70
     1
102
RTVSPropertyOp60
 70
     1
102
RTVSPropertyOp61
 70
     1
102
RTVSPropertyOp62
 70
     1
  0
XRECORD
  5
2E4
102
{ACAD_REACTORS
330
2E3
102
}
330
2E3
100
AcDbXrecord
280
     1
102
RTVSPost2010Prop28
280
     0
102
RTVSPost2010PropOp28
 70
     1
102
RTVSPost2010Prop29
280
     1
102
RTVSPost2010PropOp29
 70
     1
102
RTVSPost2010Prop30
280
     1
102
RTVSPost2010PropOp30
 70
     1
102
RTVSPost2010Prop31
280
     0
102
RTVSPost2010PropOp31
 70
     1
102
RTVSPost2010Prop32
280
     0
102
RTVSPost2010PropOp32
 70
     1
102
RTVSPost2010Prop33
280
     0
102
RTVSPost2010PropOp33
 70
     1
102
RTVSPost2010Prop34
280
     0
102
RTVSPost2010PropOp34
 70
     1
102
RTVSPost2010Prop35
280
     0
102
RTVSPost2010PropOp35
 70
     1
102
RTVSPost2010Prop36
280
     0
102
RTVSPost2010PropOp36
 70
     1
102
RTVSPost2010Prop37
 90
       50
102
RTVSPost2010PropOp37
 70
     0
102
RTVSPost2010Prop38
140
0.0
102
RTVSPost2010PropOp38
 70
     0
102
RTVSPost2010Prop39
140
1.0
102
RTVSPost2010PropOp39
 70
     0
102
RTVSPost2010Prop40
 90
        0
102
RTVSPost2010PropOp40
 70
     0
102
RTVSPost2010Prop41ColorIndex
 90
       18
102
RTVSPost2010Prop41ColorRGB
 90
        0
102
RTVSPost2010PropOp41
 70
     0
102
RTVSPost2010Prop42
 90
       50
102
RTVSPost2010PropOp42
 70
     0
102
RTVSPost2010Prop43
 90
        3
102
RTVSPost2010PropOp43
 70
     0
102
RTVSPost2010Prop44ColorIndex
 90
        5
102
RTVSPost2010Prop44ColorRGB
 90
      255
102
RTVSPost2010PropOp44
 70
     0
102
RTVSPost2010Prop45
280
     0
102
RTVSPost2010PropOp45
 70
     1
102
RTVSPost2010Prop46
 90
       50
102
RTVSPost2010PropOp46
 70
     0
102
RTVSPost2010Prop47
 90
       50
102
RTVSPost2010PropOp47
 70
     0
102
RTVSPost2010Prop48
 90
       50
102
RTVSPost2010PropOp48
 70
     0
102
RTVSPost2010Prop49
280
     0
102
RTVSPost2010PropOp49
 70
     1
102
RTVSPost2010Prop50
 90
       50
102
RTVSPost2010PropOp50
 70
     0
102
RTVSPost2010Prop51ColorIndex
 90
      256
102
RTVSPost2010Prop51ColorRGB
 90
-16777216
102
RTVSPost2010PropOp51
 70
     0
102
RTVSPost2010Prop52
140
1.0
102
RTVSPost2010PropOp52
 70
     0
102
RTVSPost2010Prop53
 90
        2
102
RTVSPost2010PropOp53
 70
     0
102
RTVSPost2010Prop54
  1
strokes_ogs.tif
102
RTVSPost2010PropOp54
 70
     0
102
RTVSPost2010Prop55
280
     0
102
RTVSPost2010PropOp55
 70
     1
102
RTVSPost2010Prop56
140
1.0
102
RTVSPost2010PropOp56
 70
     0
102
RTVSPost2010Prop57
140
1.0
102
RTVSPost2010PropOp57
 70
     0
102
RTVSPropertyOp0
 70
     0
102
RTVSPropertyOp1
 70
     0
102
RTVSPropertyOp2
 70
     0
102
RTVSPropertyOp3
 70
     0
102
RTVSPropertyOp4
 70
     0
102
RTVSPropertyOp5
 70
     0
102
RTVSPropertyOp6
 70
     0
102
RTVSPropertyOp7
 70
     0
102
RTVSPropertyOp8
 70
     0
102
RTVSPropertyOp9
 70
     0
102
RTVSPropertyOp10
 70
     0
102
RTVSPropertyOp11
 70
     0
102
RTVSPropertyOp12
 70
     0
102
RTVSPropertyOp13
 70
     0
102
RTVSPropertyOp14
 70
     2
102
RTVSPropertyOp15
 70
     0
102
RTVSPropertyOp16
 70
     0
102
RTVSPropertyOp17
 70
     0
102
RTVSPropertyOp18
 70
     0
102
RTVSPropertyOp19
 70
     0
102
RTVSPropertyOp20
 70
     0
102
RTVSPropertyOp21
 70
     0
102
RTVSPropertyOp22
 70
     0
102
RTVSPropertyOp23
 70
     0
102
RTVSPropertyOp24
 70
     0
102
RTVSPropertyOp25
 70
     0
102
RTVSPropertyOp26
 70
     0
102
RTVSPropertyOp27
 70
     0
102
RTVSPropertyOp28
 70
     1
102
RTVSPropertyOp29
 70
     1
102
RTVSPropertyOp30
 70
     1
102
RTVSPropertyOp31
 70
     1
102
RTVSPropertyOp32
 70
     1
102
RTVSPropertyOp33
 70
     1
102
RTVSPropertyOp34
 70
     1
102
RTVSPropertyOp35
 70
     1
102
RTVSPropertyOp36
 70
     1
102
RTVSPropertyOp37
 70
     0
102
RTVSPropertyOp38
 70
     0
102
RTVSPropertyOp39
 70
     0
102
RTVSPropertyOp40
 70
     0
102
RTVSPropertyOp41
 70
     0
102
RTVSPropertyOp42
 70
     0
102
RTVSPropertyOp43
 70
     0
102
RTVSPropertyOp44
 70
     0
102
RTVSPropertyOp45
 70
     1
102
RTVSPropertyOp46
 70
     0
102
RTVSPropertyOp47
 70
     0
102
RTVSPropertyOp48
 70
     0
102
RTVSPropertyOp49
 70
     1
102
RTVSPropertyOp50
 70
     0
102
RTVSPropertyOp51
 70
     0
102
RTVSPropertyOp52
 70
     0
102
RTVSPropertyOp53
 70
     0
102
RTVSPropertyOp54
 70
     0
102
RTVSPropertyOp55
 70
     1
102
RTVSPropertyOp56
 70
     0
102
RTVSPropertyOp57
 70
     0
102
RTVSPropertyOp58
 70
     0
102
RTVSPropertyOp59
 70
     0
102
RTVSPropertyOp60
 70
     0
102
RTVSPropertyOp61
 70
     0
102
RTVSPropertyOp62
 70
     0
  0
XRECORD
  5
2D2
102
{ACAD_REACTORS
330
2D1
102
}
330
2D1
100
AcDbXrecord
280
     1
102
RTVSPost2010Prop28
280
     0
102
RTVSPost2010PropOp28
 70
     1
102
RTVSPost2010Prop29
280
     1
102
RTVSPost2010PropOp29
 70
     1
102
RTVSPost2010Prop30
280
     1
102
RTVSPost2010PropOp30
 70
     1
102
RTVSPost2010Prop31
280
     0
102
RTVSPost2010PropOp31
 70
     1
102
RTVSPost2010Prop32
280
     0
102
RTVSPost2010PropOp32
 70
     1
102
RTVSPost2010Prop33
280
     0
102
RTVSPost2010PropOp33
 70
     1
102
RTVSPost2010Prop34
280
     0
102
RTVSPost2010PropOp34
 70
     1
102
RTVSPost2010Prop35
280
     0
102
RTVSPost2010PropOp35
 70
     1
102
RTVSPost2010Prop36
280
     0
102
RTVSPost2010PropOp36
 70
     1
102
RTVSPost2010Prop37
 90
       50
102
RTVSPost2010PropOp37
 70
     1
102
RTVSPost2010Prop38
140
0.0
102
RTVSPost2010PropOp38
 70
     1
102
RTVSPost2010Prop39
140
1.0
102
RTVSPost2010PropOp39
 70
     1
102
RTVSPost2010Prop40
 90
        0
102
RTVSPost2010PropOp40
 70
     1
102
RTVSPost2010Prop41ColorIndex
 90
       18
102
RTVSPost2010Prop41ColorRGB
 90
        0
102
RTVSPost2010PropOp41
 70
     1
102
RTVSPost2010Prop42
 90
       50
102
RTVSPost2010PropOp42
 70
     1
102
RTVSPost2010Prop43
 90
        3
102
RTVSPost2010PropOp43
 70
     1
102
RTVSPost2010Prop44ColorIndex
 90
        5
102
RTVSPost2010Prop44ColorRGB
 90
      255
102
RTVSPost2010PropOp44
 70
     1
102
RTVSPost2010Prop45
280
     0
102
RTVSPost2010PropOp45
 70
     1
102
RTVSPost2010Prop46
 90
       50
102
RTVSPost2010PropOp46
 70
     1
102
RTVSPost2010Prop47
 90
       50
102
RTVSPost2010PropOp47
 70
     1
102
RTVSPost2010Prop48
 90
       50
102
RTVSPost2010PropOp48
 70
     1
102
RTVSPost2010Prop49
280
     0
102
RTVSPost2010PropOp49
 70
     1
102
RTVSPost2010Prop50
 90
       50
102
RTVSPost2010PropOp50
 70
     1
102
RTVSPost2010Prop51ColorIndex
 90
      256
102
RTVSPost2010Prop51ColorRGB
 90
-16777216
102
RTVSPost2010PropOp51
 70
     0
102
RTVSPost2010Prop52
140
1.0
102
RTVSPost2010PropOp52
 70
     0
102
RTVSPost2010Prop53
 90
        2
102
RTVSPost2010PropOp53
 70
     1
102
RTVSPost2010Prop54
  1
strokes_ogs.tif
102
RTVSPost2010PropOp54
 70
     1
102
RTVSPost2010Prop55
280
     0
102
RTVSPost2010PropOp55
 70
     1
102
RTVSPost2010Prop56
140
1.0
102
RTVSPost2010PropOp56
 70
     1
102
RTVSPost2010Prop57
140
1.0
102
RTVSPost2010PropOp57
 70
     1
102
RTVSPropertyOp0
 70
     1
102
RTVSPropertyOp1
 70
     1
102
RTVSPropertyOp2
 70
     1
102
RTVSPropertyOp3
 70
     1
102
RTVSPropertyOp4
 70
     1
102
RTVSPropertyOp5
 70
     1
102
RTVSPropertyOp6
 70
     1
102
RTVSPropertyOp7
 70
     1
102
RTVSPropertyOp8
 70
     1
102
RTVSPropertyOp9
 70
     1
102
RTVSPropertyOp10
 70
     1
102
RTVSPropertyOp11
 70
     1
102
RTVSPropertyOp12
 70
     1
102
RTVSPropertyOp13
 70
     1
102
RTVSPropertyOp14
 70
     1
102
RTVSPropertyOp15
 70
     1
102
RTVSPropertyOp16
 70
     1
102
RTVSPropertyOp17
 70
     1
102
RTVSPropertyOp18
 70
     1
102
RTVSPropertyOp19
 70
     1
102
RTVSPropertyOp20
 70
     1
102
RTVSPropertyOp21
 70
     1
102
RTVSPropertyOp22
 70
     1
102
RTVSPropertyOp23
 70
     1
102
RTVSPropertyOp24
 70
     1
102
RTVSPropertyOp25
 70
     1
102
RTVSPropertyOp26
 70
     1
102
RTVSPropertyOp27
 70
     1
102
RTVSPropertyOp28
 70
     1
102
RTVSPropertyOp29
 70
     1
102
RTVSPropertyOp30
 70
     1
102
RTVSPropertyOp31
 70
     1
102
RTVSPropertyOp32
 70
     1
102
RTVSPropertyOp33
 70
     1
102
RTVSPropertyOp34
 70
     1
102
RTVSPropertyOp35
 70
     1
102
RTVSPropertyOp36
 70
     1
102
RTVSPropertyOp37
 70
     1
102
RTVSPropertyOp38
 70
     1
102
RTVSPropertyOp39
 70
     1
102
RTVSPropertyOp40
 70
     1
102
RTVSPropertyOp41
 70
     1
102
RTVSPropertyOp42
 70
     1
102
RTVSPropertyOp43
 70
     1
102
RTVSPropertyOp44
 70
     1
102
RTVSPropertyOp45
 70
     1
102
RTVSPropertyOp46
 70
     1
102
RTVSPropertyOp47
 70
     1
102
RTVSPropertyOp48
 70
     1
102
RTVSPropertyOp49
 70
     1
102
RTVSPropertyOp50
 70
     1
102
RTVSPropertyOp51
 70
     0
102
RTVSPropertyOp52
 70
     0
102
RTVSPropertyOp53
 70
     1
102
RTVSPropertyOp54
 70
     1
102
RTVSPropertyOp55
 70
     1
102
RTVSPropertyOp56
 70
     1
102
RTVSPropertyOp57
 70
     1
102
RTVSPropertyOp58
 70
     1
102
RTVSPropertyOp59
 70
     1
102
RTVSPropertyOp60
 70
     1
102
RTVSPropertyOp61
 70
     1
102
RTVSPropertyOp62
 70
     1
  0
XRECORD
  5
2B6
102
{ACAD_REACTORS
330
2B5
102
}
330
2B5
100
AcDbXrecord
280
     1
102
RTVSPost2010Prop28
280
     0
102
RTVSPost2010PropOp28
 70
     1
102
RTVSPost2010Prop29
280
     1
102
RTVSPost2010PropOp29
 70
     1
102
RTVSPost2010Prop30
280
     1
102
RTVSPost2010PropOp30
 70
     1
102
RTVSPost2010Prop31
280
     0
102
RTVSPost2010PropOp31
 70
     1
102
RTVSPost2010Prop32
280
     0
102
RTVSPost2010PropOp32
 70
     1
102
RTVSPost2010Prop33
280
     0
102
RTVSPost2010PropOp33
 70
     1
102
RTVSPost2010Prop34
280
     0
102
RTVSPost2010PropOp34
 70
     1
102
RTVSPost2010Prop35
280
     0
102
RTVSPost2010PropOp35
 70
     1
102
RTVSPost2010Prop36
280
     0
102
RTVSPost2010PropOp36
 70
     1
102
RTVSPost2010Prop37
 90
       50
102
RTVSPost2010PropOp37
 70
     1
102
RTVSPost2010Prop38
140
0.0
102
RTVSPost2010PropOp38
 70
     1
102
RTVSPost2010Prop39
140
1.0
102
RTVSPost2010PropOp39
 70
     1
102
RTVSPost2010Prop40
 90
        0
102
RTVSPost2010PropOp40
 70
     1
102
RTVSPost2010Prop41ColorIndex
 90
       18
102
RTVSPost2010Prop41ColorRGB
 90
        0
102
RTVSPost2010PropOp41
 70
     1
102
RTVSPost2010Prop42
 90
       50
102
RTVSPost2010PropOp42
 70
     1
102
RTVSPost2010Prop43
 90
        3
102
RTVSPost2010PropOp43
 70
     1
102
RTVSPost2010Prop44ColorIndex
 90
        5
102
RTVSPost2010Prop44ColorRGB
 90
      255
102
RTVSPost2010PropOp44
 70
     1
102
RTVSPost2010Prop45
280
     0
102
RTVSPost2010PropOp45
 70
     1
102
RTVSPost2010Prop46
 90
       50
102
RTVSPost2010PropOp46
 70
     1
102
RTVSPost2010Prop47
 90
       50
102
RTVSPost2010PropOp47
 70
     1
102
RTVSPost2010Prop48
 90
       50
102
RTVSPost2010PropOp48
 70
     1
102
RTVSPost2010Prop49
280
     0
102
RTVSPost2010PropOp49
 70
     1
102
RTVSPost2010Prop50
 90
       50
102
RTVSPost2010PropOp50
 70
     1
102
RTVSPost2010Prop51ColorIndex
 90
      256
102
RTVSPost2010Prop51ColorRGB
 90
-16777216
102
RTVSPost2010PropOp51
 70
     0
102
RTVSPost2010Prop52
140
1.0
102
RTVSPost2010PropOp52
 70
     0
102
RTVSPost2010Prop53
 90
        2
102
RTVSPost2010PropOp53
 70
     1
102
RTVSPost2010Prop54
  1
strokes_ogs.tif
102
RTVSPost2010PropOp54
 70
     1
102
RTVSPost2010Prop55
280
     0
102
RTVSPost2010PropOp55
 70
     1
102
RTVSPost2010Prop56
140
1.0
102
RTVSPost2010PropOp56
 70
     1
102
RTVSPost2010Prop57
140
1.0
102
RTVSPost2010PropOp57
 70
     1
102
RTVSPropertyOp0
 70
     1
102
RTVSPropertyOp1
 70
     1
102
RTVSPropertyOp2
 70
     1
102
RTVSPropertyOp3
 70
     1
102
RTVSPropertyOp4
 70
     1
102
RTVSPropertyOp5
 70
     1
102
RTVSPropertyOp6
 70
     1
102
RTVSPropertyOp7
 70
     1
102
RTVSPropertyOp8
 70
     1
102
RTVSPropertyOp9
 70
     1
102
RTVSPropertyOp10
 70
     1
102
RTVSPropertyOp11
 70
     1
102
RTVSPropertyOp12
 70
     1
102
RTVSPropertyOp13
 70
     1
102
RTVSPropertyOp14
 70
     1
102
RTVSPropertyOp15
 70
     1
102
RTVSPropertyOp16
 70
     1
102
RTVSPropertyOp17
 70
     1
102
RTVSPropertyOp18
 70
     1
102
RTVSPropertyOp19
 70
     1
102
RTVSPropertyOp20
 70
     1
102
RTVSPropertyOp21
 70
     1
102
RTVSPropertyOp22
 70
     1
102
RTVSPropertyOp23
 70
     1
102
RTVSPropertyOp24
 70
     1
102
RTVSPropertyOp25
 70
     1
102
RTVSPropertyOp26
 70
     1
102
RTVSPropertyOp27
 70
     1
102
RTVSPropertyOp28
 70
     1
102
RTVSPropertyOp29
 70
     1
102
RTVSPropertyOp30
 70
     1
102
RTVSPropertyOp31
 70
     1
102
RTVSPropertyOp32
 70
     1
102
RTVSPropertyOp33
 70
     1
102
RTVSPropertyOp34
 70
     1
102
RTVSPropertyOp35
 70
     1
102
RTVSPropertyOp36
 70
     1
102
RTVSPropertyOp37
 70
     1
102
RTVSPropertyOp38
 70
     1
102
RTVSPropertyOp39
 70
     1
102
RTVSPropertyOp40
 70
     1
102
RTVSPropertyOp41
 70
     1
102
RTVSPropertyOp42
 70
     1
102
RTVSPropertyOp43
 70
     1
102
RTVSPropertyOp44
 70
     1
102
RTVSPropertyOp45
 70
     1
102
RTVSPropertyOp46
 70
     1
102
RTVSPropertyOp47
 70
     1
102
RTVSPropertyOp48
 70
     1
102
RTVSPropertyOp49
 70
     1
102
RTVSPropertyOp50
 70
     1
102
RTVSPropertyOp51
 70
     0
102
RTVSPropertyOp52
 70
     0
102
RTVSPropertyOp53
 70
     1
102
RTVSPropertyOp54
 70
     1
102
RTVSPropertyOp55
 70
     1
102
RTVSPropertyOp56
 70
     1
102
RTVSPropertyOp57
 70
     1
102
RTVSPropertyOp58
 70
     1
102
RTVSPropertyOp59
 70
     1
102
RTVSPropertyOp60
 70
     1
102
RTVSPropertyOp61
 70
     1
102
RTVSPropertyOp62
 70
     1
  0
XRECORD
  5
2B8
102
{ACAD_REACTORS
330
2B7
102
}
330
2B7
100
AcDbXrecord
280
     1
102
RTVSPost2010Prop28
280
     0
102
RTVSPost2010PropOp28
 70
     1
102
RTVSPost2010Prop29
280
     1
102
RTVSPost2010PropOp29
 70
     1
102
RTVSPost2010Prop30
280
     1
102
RTVSPost2010PropOp30
 70
     1
102
RTVSPost2010Prop31
280
     0
102
RTVSPost2010PropOp31
 70
     1
102
RTVSPost2010Prop32
280
     0
102
RTVSPost2010PropOp32
 70
     1
102
RTVSPost2010Prop33
280
     0
102
RTVSPost2010PropOp33
 70
     1
102
RTVSPost2010Prop34
280
     0
102
RTVSPost2010PropOp34
 70
     1
102
RTVSPost2010Prop35
280
     0
102
RTVSPost2010PropOp35
 70
     1
102
RTVSPost2010Prop36
280
     0
102
RTVSPost2010PropOp36
 70
     1
102
RTVSPost2010Prop37
 90
       50
102
RTVSPost2010PropOp37
 70
     1
102
RTVSPost2010Prop38
140
0.0
102
RTVSPost2010PropOp38
 70
     1
102
RTVSPost2010Prop39
140
1.0
102
RTVSPost2010PropOp39
 70
     1
102
RTVSPost2010Prop40
 90
        0
102
RTVSPost2010PropOp40
 70
     1
102
RTVSPost2010Prop41ColorIndex
 90
       18
102
RTVSPost2010Prop41ColorRGB
 90
        0
102
RTVSPost2010PropOp41
 70
     1
102
RTVSPost2010Prop42
 90
       50
102
RTVSPost2010PropOp42
 70
     1
102
RTVSPost2010Prop43
 90
        3
102
RTVSPost2010PropOp43
 70
     1
102
RTVSPost2010Prop44ColorIndex
 90
        5
102
RTVSPost2010Prop44ColorRGB
 90
      255
102
RTVSPost2010PropOp44
 70
     1
102
RTVSPost2010Prop45
280
     0
102
RTVSPost2010PropOp45
 70
     1
102
RTVSPost2010Prop46
 90
       50
102
RTVSPost2010PropOp46
 70
     1
102
RTVSPost2010Prop47
 90
       50
102
RTVSPost2010PropOp47
 70
     1
102
RTVSPost2010Prop48
 90
       50
102
RTVSPost2010PropOp48
 70
     1
102
RTVSPost2010Prop49
280
     0
102
RTVSPost2010PropOp49
 70
     1
102
RTVSPost2010Prop50
 90
       50
102
RTVSPost2010PropOp50
 70
     1
102
RTVSPost2010Prop51ColorIndex
 90
      256
102
RTVSPost2010Prop51ColorRGB
 90
-16777216
102
RTVSPost2010PropOp51
 70
     0
102
RTVSPost2010Prop52
140
1.0
102
RTVSPost2010PropOp52
 70
     0
102
RTVSPost2010Prop53
 90
        2
102
RTVSPost2010PropOp53
 70
     1
102
RTVSPost2010Prop54
  1
strokes_ogs.tif
102
RTVSPost2010PropOp54
 70
     1
102
RTVSPost2010Prop55
280
     0
102
RTVSPost2010PropOp55
 70
     1
102
RTVSPost2010Prop56
140
1.0
102
RTVSPost2010PropOp56
 70
     1
102
RTVSPost2010Prop57
140
1.0
102
RTVSPost2010PropOp57
 70
     1
102
RTVSPropertyOp0
 70
     1
102
RTVSPropertyOp1
 70
     1
102
RTVSPropertyOp2
 70
     1
102
RTVSPropertyOp3
 70
     1
102
RTVSPropertyOp4
 70
     1
102
RTVSPropertyOp5
 70
     1
102
RTVSPropertyOp6
 70
     1
102
RTVSPropertyOp7
 70
     1
102
RTVSPropertyOp8
 70
     1
102
RTVSPropertyOp9
 70
     1
102
RTVSPropertyOp10
 70
     1
102
RTVSPropertyOp11
 70
     1
102
RTVSPropertyOp12
 70
     1
102
RTVSPropertyOp13
 70
     1
102
RTVSPropertyOp14
 70
     1
102
RTVSPropertyOp15
 70
     1
102
RTVSPropertyOp16
 70
     1
102
RTVSPropertyOp17
 70
     1
102
RTVSPropertyOp18
 70
     1
102
RTVSPropertyOp19
 70
     1
102
RTVSPropertyOp20
 70
     1
102
RTVSPropertyOp21
 70
     1
102
RTVSPropertyOp22
 70
     1
102
RTVSPropertyOp23
 70
     1
102
RTVSPropertyOp24
 70
     1
102
RTVSPropertyOp25
 70
     1
102
RTVSPropertyOp26
 70
     1
102
RTVSPropertyOp27
 70
     1
102
RTVSPropertyOp28
 70
     1
102
RTVSPropertyOp29
 70
     1
102
RTVSPropertyOp30
 70
     1
102
RTVSPropertyOp31
 70
     1
102
RTVSPropertyOp32
 70
     1
102
RTVSPropertyOp33
 70
     1
102
RTVSPropertyOp34
 70
     1
102
RTVSPropertyOp35
 70
     1
102
RTVSPropertyOp36
 70
     1
102
RTVSPropertyOp37
 70
     1
102
RTVSPropertyOp38
 70
     1
102
RTVSPropertyOp39
 70
     1
102
RTVSPropertyOp40
 70
     1
102
RTVSPropertyOp41
 70
     1
102
RTVSPropertyOp42
 70
     1
102
RTVSPropertyOp43
 70
     1
102
RTVSPropertyOp44
 70
     1
102
RTVSPropertyOp45
 70
     1
102
RTVSPropertyOp46
 70
     1
102
RTVSPropertyOp47
 70
     1
102
RTVSPropertyOp48
 70
     1
102
RTVSPropertyOp49
 70
     1
102
RTVSPropertyOp50
 70
     1
102
RTVSPropertyOp51
 70
     0
102
RTVSPropertyOp52
 70
     0
102
RTVSPropertyOp53
 70
     1
102
RTVSPropertyOp54
 70
     1
102
RTVSPropertyOp55
 70
     1
102
RTVSPropertyOp56
 70
     1
102
RTVSPropertyOp57
 70
     1
102
RTVSPropertyOp58
 70
     1
102
RTVSPropertyOp59
 70
     1
102
RTVSPropertyOp60
 70
     1
102
RTVSPropertyOp61
 70
     1
102
RTVSPropertyOp62
 70
     1
  0
XRECORD
  5
2BA
102
{ACAD_REACTORS
330
2B9
102
}
330
2B9
100
AcDbXrecord
280
     1
102
RTVSPost2010Prop28
280
     0
102
RTVSPost2010PropOp28
 70
     1
102
RTVSPost2010Prop29
280
     1
102
RTVSPost2010PropOp29
 70
     1
102
RTVSPost2010Prop30
280
     1
102
RTVSPost2010PropOp30
 70
     1
102
RTVSPost2010Prop31
280
     0
102
RTVSPost2010PropOp31
 70
     1
102
RTVSPost2010Prop32
280
     0
102
RTVSPost2010PropOp32
 70
     1
102
RTVSPost2010Prop33
280
     0
102
RTVSPost2010PropOp33
 70
     1
102
RTVSPost2010Prop34
280
     0
102
RTVSPost2010PropOp34
 70
     1
102
RTVSPost2010Prop35
280
     0
102
RTVSPost2010PropOp35
 70
     1
102
RTVSPost2010Prop36
280
     0
102
RTVSPost2010PropOp36
 70
     1
102
RTVSPost2010Prop37
 90
       50
102
RTVSPost2010PropOp37
 70
     1
102
RTVSPost2010Prop38
140
0.0
102
RTVSPost2010PropOp38
 70
     1
102
RTVSPost2010Prop39
140
1.0
102
RTVSPost2010PropOp39
 70
     1
102
RTVSPost2010Prop40
 90
        0
102
RTVSPost2010PropOp40
 70
     1
102
RTVSPost2010Prop41ColorIndex
 90
       18
102
RTVSPost2010Prop41ColorRGB
 90
        0
102
RTVSPost2010PropOp41
 70
     1
102
RTVSPost2010Prop42
 90
       50
102
RTVSPost2010PropOp42
 70
     1
102
RTVSPost2010Prop43
 90
        3
102
RTVSPost2010PropOp43
 70
     1
102
RTVSPost2010Prop44ColorIndex
 90
        5
102
RTVSPost2010Prop44ColorRGB
 90
      255
102
RTVSPost2010PropOp44
 70
     1
102
RTVSPost2010Prop45
280
     0
102
RTVSPost2010PropOp45
 70
     1
102
RTVSPost2010Prop46
 90
       50
102
RTVSPost2010PropOp46
 70
     1
102
RTVSPost2010Prop47
 90
       50
102
RTVSPost2010PropOp47
 70
     1
102
RTVSPost2010Prop48
 90
       50
102
RTVSPost2010PropOp48
 70
     1
102
RTVSPost2010Prop49
280
     0
102
RTVSPost2010PropOp49
 70
     1
102
RTVSPost2010Prop50
 90
       50
102
RTVSPost2010PropOp50
 70
     1
102
RTVSPost2010Prop51ColorIndex
 90
      256
102
RTVSPost2010Prop51ColorRGB
 90
-16777216
102
RTVSPost2010PropOp51
 70
     0
102
RTVSPost2010Prop52
140
1.0
102
RTVSPost2010PropOp52
 70
     0
102
RTVSPost2010Prop53
 90
        2
102
RTVSPost2010PropOp53
 70
     1
102
RTVSPost2010Prop54
  1
strokes_ogs.tif
102
RTVSPost2010PropOp54
 70
     1
102
RTVSPost2010Prop55
280
     0
102
RTVSPost2010PropOp55
 70
     1
102
RTVSPost2010Prop56
140
1.0
102
RTVSPost2010PropOp56
 70
     1
102
RTVSPost2010Prop57
140
1.0
102
RTVSPost2010PropOp57
 70
     1
102
RTVSPropertyOp0
 70
     1
102
RTVSPropertyOp1
 70
     1
102
RTVSPropertyOp2
 70
     1
102
RTVSPropertyOp3
 70
     1
102
RTVSPropertyOp4
 70
     1
102
RTVSPropertyOp5
 70
     1
102
RTVSPropertyOp6
 70
     1
102
RTVSPropertyOp7
 70
     1
102
RTVSPropertyOp8
 70
     1
102
RTVSPropertyOp9
 70
     1
102
RTVSPropertyOp10
 70
     1
102
RTVSPropertyOp11
 70
     1
102
RTVSPropertyOp12
 70
     1
102
RTVSPropertyOp13
 70
     1
102
RTVSPropertyOp14
 70
     1
102
RTVSPropertyOp15
 70
     1
102
RTVSPropertyOp16
 70
     1
102
RTVSPropertyOp17
 70
     1
102
RTVSPropertyOp18
 70
     1
102
RTVSPropertyOp19
 70
     1
102
RTVSPropertyOp20
 70
     1
102
RTVSPropertyOp21
 70
     1
102
RTVSPropertyOp22
 70
     1
102
RTVSPropertyOp23
 70
     1
102
RTVSPropertyOp24
 70
     1
102
RTVSPropertyOp25
 70
     1
102
RTVSPropertyOp26
 70
     1
102
RTVSPropertyOp27
 70
     1
102
RTVSPropertyOp28
 70
     1
102
RTVSPropertyOp29
 70
     1
102
RTVSPropertyOp30
 70
     1
102
RTVSPropertyOp31
 70
     1
102
RTVSPropertyOp32
 70
     1
102
RTVSPropertyOp33
 70
     1
102
RTVSPropertyOp34
 70
     1
102
RTVSPropertyOp35
 70
     1
102
RTVSPropertyOp36
 70
     1
102
RTVSPropertyOp37
 70
     1
102
RTVSPropertyOp38
 70
     1
102
RTVSPropertyOp39
 70
     1
102
RTVSPropertyOp40
 70
     1
102
RTVSPropertyOp41
 70
     1
102
RTVSPropertyOp42
 70
     1
102
RTVSPropertyOp43
 70
     1
102
RTVSPropertyOp44
 70
     1
102
RTVSPropertyOp45
 70
     1
102
RTVSPropertyOp46
 70
     1
102
RTVSPropertyOp47
 70
     1
102
RTVSPropertyOp48
 70
     1
102
RTVSPropertyOp49
 70
     1
102
RTVSPropertyOp50
 70
     1
102
RTVSPropertyOp51
 70
     0
102
RTVSPropertyOp52
 70
     0
102
RTVSPropertyOp53
 70
     1
102
RTVSPropertyOp54
 70
     1
102
RTVSPropertyOp55
 70
     1
102
RTVSPropertyOp56
 70
     1
102
RTVSPropertyOp57
 70
     1
102
RTVSPropertyOp58
 70
     1
102
RTVSPropertyOp59
 70
     1
102
RTVSPropertyOp60
 70
     1
102
RTVSPropertyOp61
 70
     1
102
RTVSPropertyOp62
 70
     1
  0
XRECORD
  5
2BC
102
{ACAD_REACTORS
330
2BB
102
}
330
2BB
100
AcDbXrecord
280
     1
102
RTVSPost2010Prop28
280
     0
102
RTVSPost2010PropOp28
 70
     1
102
RTVSPost2010Prop29
280
     1
102
RTVSPost2010PropOp29
 70
     1
102
RTVSPost2010Prop30
280
     1
102
RTVSPost2010PropOp30
 70
     1
102
RTVSPost2010Prop31
280
     0
102
RTVSPost2010PropOp31
 70
     1
102
RTVSPost2010Prop32
280
     0
102
RTVSPost2010PropOp32
 70
     1
102
RTVSPost2010Prop33
280
     0
102
RTVSPost2010PropOp33
 70
     1
102
RTVSPost2010Prop34
280
     0
102
RTVSPost2010PropOp34
 70
     1
102
RTVSPost2010Prop35
280
     0
102
RTVSPost2010PropOp35
 70
     1
102
RTVSPost2010Prop36
280
     0
102
RTVSPost2010PropOp36
 70
     1
102
RTVSPost2010Prop37
 90
       50
102
RTVSPost2010PropOp37
 70
     1
102
RTVSPost2010Prop38
140
0.0
102
RTVSPost2010PropOp38
 70
     1
102
RTVSPost2010Prop39
140
1.0
102
RTVSPost2010PropOp39
 70
     1
102
RTVSPost2010Prop40
 90
        0
102
RTVSPost2010PropOp40
 70
     1
102
RTVSPost2010Prop41ColorIndex
 90
       18
102
RTVSPost2010Prop41ColorRGB
 90
        0
102
RTVSPost2010PropOp41
 70
     1
102
RTVSPost2010Prop42
 90
       50
102
RTVSPost2010PropOp42
 70
     1
102
RTVSPost2010Prop43
 90
        3
102
RTVSPost2010PropOp43
 70
     1
102
RTVSPost2010Prop44ColorIndex
 90
        5
102
RTVSPost2010Prop44ColorRGB
 90
      255
102
RTVSPost2010PropOp44
 70
     1
102
RTVSPost2010Prop45
280
     0
102
RTVSPost2010PropOp45
 70
     1
102
RTVSPost2010Prop46
 90
       50
102
RTVSPost2010PropOp46
 70
     1
102
RTVSPost2010Prop47
 90
       50
102
RTVSPost2010PropOp47
 70
     1
102
RTVSPost2010Prop48
 90
       50
102
RTVSPost2010PropOp48
 70
     1
102
RTVSPost2010Prop49
280
     0
102
RTVSPost2010PropOp49
 70
     1
102
RTVSPost2010Prop50
 90
       50
102
RTVSPost2010PropOp50
 70
     1
102
RTVSPost2010Prop51ColorIndex
 90
      256
102
RTVSPost2010Prop51ColorRGB
 90
-16777216
102
RTVSPost2010PropOp51
 70
     0
102
RTVSPost2010Prop52
140
1.0
102
RTVSPost2010PropOp52
 70
     0
102
RTVSPost2010Prop53
 90
        2
102
RTVSPost2010PropOp53
 70
     1
102
RTVSPost2010Prop54
  1
strokes_ogs.tif
102
RTVSPost2010PropOp54
 70
     1
102
RTVSPost2010Prop55
280
     0
102
RTVSPost2010PropOp55
 70
     1
102
RTVSPost2010Prop56
140
1.0
102
RTVSPost2010PropOp56
 70
     1
102
RTVSPost2010Prop57
140
1.0
102
RTVSPost2010PropOp57
 70
     1
102
RTVSPropertyOp0
 70
     1
102
RTVSPropertyOp1
 70
     1
102
RTVSPropertyOp2
 70
     1
102
RTVSPropertyOp3
 70
     1
102
RTVSPropertyOp4
 70
     1
102
RTVSPropertyOp5
 70
     1
102
RTVSPropertyOp6
 70
     1
102
RTVSPropertyOp7
 70
     1
102
RTVSPropertyOp8
 70
     1
102
RTVSPropertyOp9
 70
     1
102
RTVSPropertyOp10
 70
     1
102
RTVSPropertyOp11
 70
     1
102
RTVSPropertyOp12
 70
     1
102
RTVSPropertyOp13
 70
     1
102
RTVSPropertyOp14
 70
     1
102
RTVSPropertyOp15
 70
     1
102
RTVSPropertyOp16
 70
     1
102
RTVSPropertyOp17
 70
     1
102
RTVSPropertyOp18
 70
     1
102
RTVSPropertyOp19
 70
     1
102
RTVSPropertyOp20
 70
     1
102
RTVSPropertyOp21
 70
     1
102
RTVSPropertyOp22
 70
     1
102
RTVSPropertyOp23
 70
     1
102
RTVSPropertyOp24
 70
     1
102
RTVSPropertyOp25
 70
     1
102
RTVSPropertyOp26
 70
     1
102
RTVSPropertyOp27
 70
     1
102
RTVSPropertyOp28
 70
     1
102
RTVSPropertyOp29
 70
     1
102
RTVSPropertyOp30
 70
     1
102
RTVSPropertyOp31
 70
     1
102
RTVSPropertyOp32
 70
     1
102
RTVSPropertyOp33
 70
     1
102
RTVSPropertyOp34
 70
     1
102
RTVSPropertyOp35
 70
     1
102
RTVSPropertyOp36
 70
     1
102
RTVSPropertyOp37
 70
     1
102
RTVSPropertyOp38
 70
     1
102
RTVSPropertyOp39
 70
     1
102
RTVSPropertyOp40
 70
     1
102
RTVSPropertyOp41
 70
     1
102
RTVSPropertyOp42
 70
     1
102
RTVSPropertyOp43
 70
     1
102
RTVSPropertyOp44
 70
     1
102
RTVSPropertyOp45
 70
     1
102
RTVSPropertyOp46
 70
     1
102
RTVSPropertyOp47
 70
     1
102
RTVSPropertyOp48
 70
     1
102
RTVSPropertyOp49
 70
     1
102
RTVSPropertyOp50
 70
     1
102
RTVSPropertyOp51
 70
     0
102
RTVSPropertyOp52
 70
     0
102
RTVSPropertyOp53
 70
     1
102
RTVSPropertyOp54
 70
     1
102
RTVSPropertyOp55
 70
     1
102
RTVSPropertyOp56
 70
     1
102
RTVSPropertyOp57
 70
     1
102
RTVSPropertyOp58
 70
     1
102
RTVSPropertyOp59
 70
     1
102
RTVSPropertyOp60
 70
     1
102
RTVSPropertyOp61
 70
     1
102
RTVSPropertyOp62
 70
     1
  0
XRECORD
  5
2C4
102
{ACAD_REACTORS
330
2C3
102
}
330
2C3
100
AcDbXrecord
280
     1
102
RTVSPost2010Prop28
280
     0
102
RTVSPost2010PropOp28
 70
     1
102
RTVSPost2010Prop29
280
     1
102
RTVSPost2010PropOp29
 70
     1
102
RTVSPost2010Prop30
280
     1
102
RTVSPost2010PropOp30
 70
     1
102
RTVSPost2010Prop31
280
     0
102
RTVSPost2010PropOp31
 70
     1
102
RTVSPost2010Prop32
280
     0
102
RTVSPost2010PropOp32
 70
     1
102
RTVSPost2010Prop33
280
     0
102
RTVSPost2010PropOp33
 70
     1
102
RTVSPost2010Prop34
280
     0
102
RTVSPost2010PropOp34
 70
     1
102
RTVSPost2010Prop35
280
     0
102
RTVSPost2010PropOp35
 70
     1
102
RTVSPost2010Prop36
280
     0
102
RTVSPost2010PropOp36
 70
     1
102
RTVSPost2010Prop37
 90
       50
102
RTVSPost2010PropOp37
 70
     1
102
RTVSPost2010Prop38
140
0.0
102
RTVSPost2010PropOp38
 70
     1
102
RTVSPost2010Prop39
140
1.0
102
RTVSPost2010PropOp39
 70
     1
102
RTVSPost2010Prop40
 90
        0
102
RTVSPost2010PropOp40
 70
     1
102
RTVSPost2010Prop41ColorIndex
 90
       18
102
RTVSPost2010Prop41ColorRGB
 90
        0
102
RTVSPost2010PropOp41
 70
     1
102
RTVSPost2010Prop42
 90
       50
102
RTVSPost2010PropOp42
 70
     1
102
RTVSPost2010Prop43
 90
        3
102
RTVSPost2010PropOp43
 70
     1
102
RTVSPost2010Prop44ColorIndex
 90
        5
102
RTVSPost2010Prop44ColorRGB
 90
      255
102
RTVSPost2010PropOp44
 70
     1
102
RTVSPost2010Prop45
280
     0
102
RTVSPost2010PropOp45
 70
     1
102
RTVSPost2010Prop46
 90
       50
102
RTVSPost2010PropOp46
 70
     1
102
RTVSPost2010Prop47
 90
       50
102
RTVSPost2010PropOp47
 70
     1
102
RTVSPost2010Prop48
 90
       50
102
RTVSPost2010PropOp48
 70
     1
102
RTVSPost2010Prop49
280
     0
102
RTVSPost2010PropOp49
 70
     1
102
RTVSPost2010Prop50
 90
       50
102
RTVSPost2010PropOp50
 70
     1
102
RTVSPost2010Prop51ColorIndex
 90
      256
102
RTVSPost2010Prop51ColorRGB
 90
-16777216
102
RTVSPost2010PropOp51
 70
     0
102
RTVSPost2010Prop52
140
1.0
102
RTVSPost2010PropOp52
 70
     0
102
RTVSPost2010Prop53
 90
        2
102
RTVSPost2010PropOp53
 70
     1
102
RTVSPost2010Prop54
  1
strokes_ogs.tif
102
RTVSPost2010PropOp54
 70
     1
102
RTVSPost2010Prop55
280
     0
102
RTVSPost2010PropOp55
 70
     1
102
RTVSPost2010Prop56
140
1.0
102
RTVSPost2010PropOp56
 70
     1
102
RTVSPost2010Prop57
140
1.0
102
RTVSPost2010PropOp57
 70
     1
102
RTVSPropertyOp0
 70
     1
102
RTVSPropertyOp1
 70
     1
102
RTVSPropertyOp2
 70
     1
102
RTVSPropertyOp3
 70
     1
102
RTVSPropertyOp4
 70
     1
102
RTVSPropertyOp5
 70
     1
102
RTVSPropertyOp6
 70
     1
102
RTVSPropertyOp7
 70
     1
102
RTVSPropertyOp8
 70
     1
102
RTVSPropertyOp9
 70
     1
102
RTVSPropertyOp10
 70
     1
102
RTVSPropertyOp11
 70
     1
102
RTVSPropertyOp12
 70
     1
102
RTVSPropertyOp13
 70
     1
102
RTVSPropertyOp14
 70
     1
102
RTVSPropertyOp15
 70
     1
102
RTVSPropertyOp16
 70
     1
102
RTVSPropertyOp17
 70
     1
102
RTVSPropertyOp18
 70
     1
102
RTVSPropertyOp19
 70
     1
102
RTVSPropertyOp20
 70
     1
102
RTVSPropertyOp21
 70
     1
102
RTVSPropertyOp22
 70
     1
102
RTVSPropertyOp23
 70
     1
102
RTVSPropertyOp24
 70
     1
102
RTVSPropertyOp25
 70
     1
102
RTVSPropertyOp26
 70
     1
102
RTVSPropertyOp27
 70
     1
102
RTVSPropertyOp28
 70
     1
102
RTVSPropertyOp29
 70
     1
102
RTVSPropertyOp30
 70
     1
102
RTVSPropertyOp31
 70
     1
102
RTVSPropertyOp32
 70
     1
102
RTVSPropertyOp33
 70
     1
102
RTVSPropertyOp34
 70
     1
102
RTVSPropertyOp35
 70
     1
102
RTVSPropertyOp36
 70
     1
102
RTVSPropertyOp37
 70
     1
102
RTVSPropertyOp38
 70
     1
102
RTVSPropertyOp39
 70
     1
102
RTVSPropertyOp40
 70
     1
102
RTVSPropertyOp41
 70
     1
102
RTVSPropertyOp42
 70
     1
102
RTVSPropertyOp43
 70
     1
102
RTVSPropertyOp44
 70
     1
102
RTVSPropertyOp45
 70
     1
102
RTVSPropertyOp46
 70
     1
102
RTVSPropertyOp47
 70
     1
102
RTVSPropertyOp48
 70
     1
102
RTVSPropertyOp49
 70
     1
102
RTVSPropertyOp50
 70
     1
102
RTVSPropertyOp51
 70
     0
102
RTVSPropertyOp52
 70
     0
102
RTVSPropertyOp53
 70
     1
102
RTVSPropertyOp54
 70
     1
102
RTVSPropertyOp55
 70
     1
102
RTVSPropertyOp56
 70
     1
102
RTVSPropertyOp57
 70
     1
102
RTVSPropertyOp58
 70
     1
102
RTVSPropertyOp59
 70
     1
102
RTVSPropertyOp60
 70
     1
102
RTVSPropertyOp61
 70
     1
102
RTVSPropertyOp62
 70
     1
  0
XRECORD
  5
2E0
102
{ACAD_REACTORS
330
2DF
102
}
330
2DF
100
AcDbXrecord
280
     1
102
RTVSPost2010Prop28
280
     0
102
RTVSPost2010PropOp28
 70
     1
102
RTVSPost2010Prop29
280
     1
102
RTVSPost2010PropOp29
 70
     1
102
RTVSPost2010Prop30
280
     1
102
RTVSPost2010PropOp30
 70
     1
102
RTVSPost2010Prop31
280
     0
102
RTVSPost2010PropOp31
 70
     1
102
RTVSPost2010Prop32
280
     0
102
RTVSPost2010PropOp32
 70
     1
102
RTVSPost2010Prop33
280
     0
102
RTVSPost2010PropOp33
 70
     1
102
RTVSPost2010Prop34
280
     0
102
RTVSPost2010PropOp34
 70
     1
102
RTVSPost2010Prop35
280
     0
102
RTVSPost2010PropOp35
 70
     1
102
RTVSPost2010Prop36
280
     0
102
RTVSPost2010PropOp36
 70
     1
102
RTVSPost2010Prop37
 90
       50
102
RTVSPost2010PropOp37
 70
     0
102
RTVSPost2010Prop38
140
0.0
102
RTVSPost2010PropOp38
 70
     0
102
RTVSPost2010Prop39
140
1.0
102
RTVSPost2010PropOp39
 70
     0
102
RTVSPost2010Prop40
 90
        0
102
RTVSPost2010PropOp40
 70
     0
102
RTVSPost2010Prop41ColorIndex
 90
       18
102
RTVSPost2010Prop41ColorRGB
 90
        0
102
RTVSPost2010PropOp41
 70
     0
102
RTVSPost2010Prop42
 90
       50
102
RTVSPost2010PropOp42
 70
     0
102
RTVSPost2010Prop43
 90
        3
102
RTVSPost2010PropOp43
 70
     0
102
RTVSPost2010Prop44ColorIndex
 90
        5
102
RTVSPost2010Prop44ColorRGB
 90
      255
102
RTVSPost2010PropOp44
 70
     0
102
RTVSPost2010Prop45
280
     0
102
RTVSPost2010PropOp45
 70
     1
102
RTVSPost2010Prop46
 90
       50
102
RTVSPost2010PropOp46
 70
     0
102
RTVSPost2010Prop47
 90
       50
102
RTVSPost2010PropOp47
 70
     0
102
RTVSPost2010Prop48
 90
       50
102
RTVSPost2010PropOp48
 70
     0
102
RTVSPost2010Prop49
280
     0
102
RTVSPost2010PropOp49
 70
     1
102
RTVSPost2010Prop50
 90
       50
102
RTVSPost2010PropOp50
 70
     0
102
RTVSPost2010Prop51ColorIndex
 90
      256
102
RTVSPost2010Prop51ColorRGB
 90
-16777216
102
RTVSPost2010PropOp51
 70
     0
102
RTVSPost2010Prop52
140
1.0
102
RTVSPost2010PropOp52
 70
     0
102
RTVSPost2010Prop53
 90
        2
102
RTVSPost2010PropOp53
 70
     0
102
RTVSPost2010Prop54
  1
strokes_ogs.tif
102
RTVSPost2010PropOp54
 70
     0
102
RTVSPost2010Prop55
280
     0
102
RTVSPost2010PropOp55
 70
     1
102
RTVSPost2010Prop56
140
1.0
102
RTVSPost2010PropOp56
 70
     0
102
RTVSPost2010Prop57
140
1.0
102
RTVSPost2010PropOp57
 70
     0
102
RTVSPropertyOp0
 70
     0
102
RTVSPropertyOp1
 70
     0
102
RTVSPropertyOp2
 70
     0
102
RTVSPropertyOp3
 70
     0
102
RTVSPropertyOp4
 70
     0
102
RTVSPropertyOp5
 70
     0
102
RTVSPropertyOp6
 70
     0
102
RTVSPropertyOp7
 70
     0
102
RTVSPropertyOp8
 70
     0
102
RTVSPropertyOp9
 70
     0
102
RTVSPropertyOp10
 70
     0
102
RTVSPropertyOp11
 70
     0
102
RTVSPropertyOp12
 70
     0
102
RTVSPropertyOp13
 70
     0
102
RTVSPropertyOp14
 70
     2
102
RTVSPropertyOp15
 70
     0
102
RTVSPropertyOp16
 70
     0
102
RTVSPropertyOp17
 70
     0
102
RTVSPropertyOp18
 70
     0
102
RTVSPropertyOp19
 70
     0
102
RTVSPropertyOp20
 70
     0
102
RTVSPropertyOp21
 70
     0
102
RTVSPropertyOp22
 70
     0
102
RTVSPropertyOp23
 70
     0
102
RTVSPropertyOp24
 70
     0
102
RTVSPropertyOp25
 70
     0
102
RTVSPropertyOp26
 70
     0
102
RTVSPropertyOp27
 70
     0
102
RTVSPropertyOp28
 70
     1
102
RTVSPropertyOp29
 70
     1
102
RTVSPropertyOp30
 70
     1
102
RTVSPropertyOp31
 70
     1
102
RTVSPropertyOp32
 70
     1
102
RTVSPropertyOp33
 70
     1
102
RTVSPropertyOp34
 70
     1
102
RTVSPropertyOp35
 70
     1
102
RTVSPropertyOp36
 70
     1
102
RTVSPropertyOp37
 70
     0
102
RTVSPropertyOp38
 70
     0
102
RTVSPropertyOp39
 70
     0
102
RTVSPropertyOp40
 70
     0
102
RTVSPropertyOp41
 70
     0
102
RTVSPropertyOp42
 70
     0
102
RTVSPropertyOp43
 70
     0
102
RTVSPropertyOp44
 70
     0
102
RTVSPropertyOp45
 70
     1
102
RTVSPropertyOp46
 70
     0
102
RTVSPropertyOp47
 70
     0
102
RTVSPropertyOp48
 70
     0
102
RTVSPropertyOp49
 70
     1
102
RTVSPropertyOp50
 70
     0
102
RTVSPropertyOp51
 70
     0
102
RTVSPropertyOp52
 70
     0
102
RTVSPropertyOp53
 70
     0
102
RTVSPropertyOp54
 70
     0
102
RTVSPropertyOp55
 70
     1
102
RTVSPropertyOp56
 70
     0
102
RTVSPropertyOp57
 70
     0
102
RTVSPropertyOp58
 70
     0
102
RTVSPropertyOp59
 70
     0
102
RTVSPropertyOp60
 70
     0
102
RTVSPropertyOp61
 70
     0
102
RTVSPropertyOp62
 70
     0
  0
XRECORD
  5
2D0
102
{ACAD_REACTORS
330
2CF
102
}
330
2CF
100
AcDbXrecord
280
     1
102
RTVSPost2010Prop28
280
     0
102
RTVSPost2010PropOp28
 70
     1
102
RTVSPost2010Prop29
280
     1
102
RTVSPost2010PropOp29
 70
     1
102
RTVSPost2010Prop30
280
     1
102
RTVSPost2010PropOp30
 70
     1
102
RTVSPost2010Prop31
280
     0
102
RTVSPost2010PropOp31
 70
     1
102
RTVSPost2010Prop32
280
     0
102
RTVSPost2010PropOp32
 70
     1
102
RTVSPost2010Prop33
280
     0
102
RTVSPost2010PropOp33
 70
     1
102
RTVSPost2010Prop34
280
     0
102
RTVSPost2010PropOp34
 70
     1
102
RTVSPost2010Prop35
280
     0
102
RTVSPost2010PropOp35
 70
     1
102
RTVSPost2010Prop36
280
     0
102
RTVSPost2010PropOp36
 70
     1
102
RTVSPost2010Prop37
 90
       50
102
RTVSPost2010PropOp37
 70
     1
102
RTVSPost2010Prop38
140
0.0
102
RTVSPost2010PropOp38
 70
     1
102
RTVSPost2010Prop39
140
1.0
102
RTVSPost2010PropOp39
 70
     1
102
RTVSPost2010Prop40
 90
        0
102
RTVSPost2010PropOp40
 70
     1
102
RTVSPost2010Prop41ColorIndex
 90
       18
102
RTVSPost2010Prop41ColorRGB
 90
        0
102
RTVSPost2010PropOp41
 70
     1
102
RTVSPost2010Prop42
 90
       50
102
RTVSPost2010PropOp42
 70
     1
102
RTVSPost2010Prop43
 90
        3
102
RTVSPost2010PropOp43
 70
     1
102
RTVSPost2010Prop44ColorIndex
 90
        5
102
RTVSPost2010Prop44ColorRGB
 90
      255
102
RTVSPost2010PropOp44
 70
     1
102
RTVSPost2010Prop45
280
     0
102
RTVSPost2010PropOp45
 70
     1
102
RTVSPost2010Prop46
 90
       50
102
RTVSPost2010PropOp46
 70
     1
102
RTVSPost2010Prop47
 90
       50
102
RTVSPost2010PropOp47
 70
     1
102
RTVSPost2010Prop48
 90
       50
102
RTVSPost2010PropOp48
 70
     1
102
RTVSPost2010Prop49
280
     0
102
RTVSPost2010PropOp49
 70
     1
102
RTVSPost2010Prop50
 90
       50
102
RTVSPost2010PropOp50
 70
     1
102
RTVSPost2010Prop51ColorIndex
 90
      256
102
RTVSPost2010Prop51ColorRGB
 90
-16777216
102
RTVSPost2010PropOp51
 70
     0
102
RTVSPost2010Prop52
140
1.0
102
RTVSPost2010PropOp52
 70
     0
102
RTVSPost2010Prop53
 90
        2
102
RTVSPost2010PropOp53
 70
     1
102
RTVSPost2010Prop54
  1
strokes_ogs.tif
102
RTVSPost2010PropOp54
 70
     1
102
RTVSPost2010Prop55
280
     0
102
RTVSPost2010PropOp55
 70
     1
102
RTVSPost2010Prop56
140
1.0
102
RTVSPost2010PropOp56
 70
     1
102
RTVSPost2010Prop57
140
1.0
102
RTVSPost2010PropOp57
 70
     1
102
RTVSPropertyOp0
 70
     1
102
RTVSPropertyOp1
 70
     1
102
RTVSPropertyOp2
 70
     1
102
RTVSPropertyOp3
 70
     1
102
RTVSPropertyOp4
 70
     1
102
RTVSPropertyOp5
 70
     1
102
RTVSPropertyOp6
 70
     1
102
RTVSPropertyOp7
 70
     1
102
RTVSPropertyOp8
 70
     1
102
RTVSPropertyOp9
 70
     1
102
RTVSPropertyOp10
 70
     1
102
RTVSPropertyOp11
 70
     1
102
RTVSPropertyOp12
 70
     1
102
RTVSPropertyOp13
 70
     1
102
RTVSPropertyOp14
 70
     1
102
RTVSPropertyOp15
 70
     1
102
RTVSPropertyOp16
 70
     1
102
RTVSPropertyOp17
 70
     1
102
RTVSPropertyOp18
 70
     1
102
RTVSPropertyOp19
 70
     1
102
RTVSPropertyOp20
 70
     1
102
RTVSPropertyOp21
 70
     1
102
RTVSPropertyOp22
 70
     1
102
RTVSPropertyOp23
 70
     1
102
RTVSPropertyOp24
 70
     1
102
RTVSPropertyOp25
 70
     1
102
RTVSPropertyOp26
 70
     1
102
RTVSPropertyOp27
 70
     1
102
RTVSPropertyOp28
 70
     1
102
RTVSPropertyOp29
 70
     1
102
RTVSPropertyOp30
 70
     1
102
RTVSPropertyOp31
 70
     1
102
RTVSPropertyOp32
 70
     1
102
RTVSPropertyOp33
 70
     1
102
RTVSPropertyOp34
 70
     1
102
RTVSPropertyOp35
 70
     1
102
RTVSPropertyOp36
 70
     1
102
RTVSPropertyOp37
 70
     1
102
RTVSPropertyOp38
 70
     1
102
RTVSPropertyOp39
 70
     1
102
RTVSPropertyOp40
 70
     1
102
RTVSPropertyOp41
 70
     1
102
RTVSPropertyOp42
 70
     1
102
RTVSPropertyOp43
 70
     1
102
RTVSPropertyOp44
 70
     1
102
RTVSPropertyOp45
 70
     1
102
RTVSPropertyOp46
 70
     1
102
RTVSPropertyOp47
 70
     1
102
RTVSPropertyOp48
 70
     1
102
RTVSPropertyOp49
 70
     1
102
RTVSPropertyOp50
 70
     1
102
RTVSPropertyOp51
 70
     0
102
RTVSPropertyOp52
 70
     0
102
RTVSPropertyOp53
 70
     1
102
RTVSPropertyOp54
 70
     1
102
RTVSPropertyOp55
 70
     1
102
RTVSPropertyOp56
 70
     1
102
RTVSPropertyOp57
 70
     1
102
RTVSPropertyOp58
 70
     1
102
RTVSPropertyOp59
 70
     1
102
RTVSPropertyOp60
 70
     1
102
RTVSPropertyOp61
 70
     1
102
RTVSPropertyOp62
 70
     1
  0
XRECORD
  5
2E2
102
{ACAD_REACTORS
330
2E1
102
}
330
2E1
100
AcDbXrecord
280
     1
102
RTVSPost2010Prop28
280
     0
102
RTVSPost2010PropOp28
 70
     1
102
RTVSPost2010Prop29
280
     1
102
RTVSPost2010PropOp29
 70
     1
102
RTVSPost2010Prop30
280
     1
102
RTVSPost2010PropOp30
 70
     1
102
RTVSPost2010Prop31
280
     0
102
RTVSPost2010PropOp31
 70
     1
102
RTVSPost2010Prop32
280
     0
102
RTVSPost2010PropOp32
 70
     1
102
RTVSPost2010Prop33
280
     0
102
RTVSPost2010PropOp33
 70
     1
102
RTVSPost2010Prop34
280
     0
102
RTVSPost2010PropOp34
 70
     1
102
RTVSPost2010Prop35
280
     0
102
RTVSPost2010PropOp35
 70
     1
102
RTVSPost2010Prop36
280
     0
102
RTVSPost2010PropOp36
 70
     1
102
RTVSPost2010Prop37
 90
       50
102
RTVSPost2010PropOp37
 70
     0
102
RTVSPost2010Prop38
140
0.0
102
RTVSPost2010PropOp38
 70
     0
102
RTVSPost2010Prop39
140
1.0
102
RTVSPost2010PropOp39
 70
     0
102
RTVSPost2010Prop40
 90
        0
102
RTVSPost2010PropOp40
 70
     0
102
RTVSPost2010Prop41ColorIndex
 90
       18
102
RTVSPost2010Prop41ColorRGB
 90
        0
102
RTVSPost2010PropOp41
 70
     0
102
RTVSPost2010Prop42
 90
       50
102
RTVSPost2010PropOp42
 70
     0
102
RTVSPost2010Prop43
 90
        3
102
RTVSPost2010PropOp43
 70
     0
102
RTVSPost2010Prop44ColorIndex
 90
        5
102
RTVSPost2010Prop44ColorRGB
 90
      255
102
RTVSPost2010PropOp44
 70
     0
102
RTVSPost2010Prop45
280
     0
102
RTVSPost2010PropOp45
 70
     1
102
RTVSPost2010Prop46
 90
       50
102
RTVSPost2010PropOp46
 70
     0
102
RTVSPost2010Prop47
 90
       50
102
RTVSPost2010PropOp47
 70
     0
102
RTVSPost2010Prop48
 90
       50
102
RTVSPost2010PropOp48
 70
     0
102
RTVSPost2010Prop49
280
     0
102
RTVSPost2010PropOp49
 70
     1
102
RTVSPost2010Prop50
 90
       50
102
RTVSPost2010PropOp50
 70
     0
102
RTVSPost2010Prop51ColorIndex
 90
      256
102
RTVSPost2010Prop51ColorRGB
 90
-16777216
102
RTVSPost2010PropOp51
 70
     0
102
RTVSPost2010Prop52
140
1.0
102
RTVSPost2010PropOp52
 70
     0
102
RTVSPost2010Prop53
 90
        2
102
RTVSPost2010PropOp53
 70
     0
102
RTVSPost2010Prop54
  1
strokes_ogs.tif
102
RTVSPost2010PropOp54
 70
     0
102
RTVSPost2010Prop55
280
     0
102
RTVSPost2010PropOp55
 70
     1
102
RTVSPost2010Prop56
140
1.0
102
RTVSPost2010PropOp56
 70
     0
102
RTVSPost2010Prop57
140
1.0
102
RTVSPost2010PropOp57
 70
     0
102
RTVSPropertyOp0
 70
     0
102
RTVSPropertyOp1
 70
     0
102
RTVSPropertyOp2
 70
     0
102
RTVSPropertyOp3
 70
     0
102
RTVSPropertyOp4
 70
     0
102
RTVSPropertyOp5
 70
     0
102
RTVSPropertyOp6
 70
     0
102
RTVSPropertyOp7
 70
     0
102
RTVSPropertyOp8
 70
     0
102
RTVSPropertyOp9
 70
     0
102
RTVSPropertyOp10
 70
     0
102
RTVSPropertyOp11
 70
     0
102
RTVSPropertyOp12
 70
     0
102
RTVSPropertyOp13
 70
     0
102
RTVSPropertyOp14
 70
     2
102
RTVSPropertyOp15
 70
     0
102
RTVSPropertyOp16
 70
     0
102
RTVSPropertyOp17
 70
     0
102
RTVSPropertyOp18
 70
     0
102
RTVSPropertyOp19
 70
     0
102
RTVSPropertyOp20
 70
     0
102
RTVSPropertyOp21
 70
     0
102
RTVSPropertyOp22
 70
     0
102
RTVSPropertyOp23
 70
     0
102
RTVSPropertyOp24
 70
     0
102
RTVSPropertyOp25
 70
     0
102
RTVSPropertyOp26
 70
     0
102
RTVSPropertyOp27
 70
     0
102
RTVSPropertyOp28
 70
     1
102
RTVSPropertyOp29
 70
     1
102
RTVSPropertyOp30
 70
     1
102
RTVSPropertyOp31
 70
     1
102
RTVSPropertyOp32
 70
     1
102
RTVSPropertyOp33
 70
     1
102
RTVSPropertyOp34
 70
     1
102
RTVSPropertyOp35
 70
     1
102
RTVSPropertyOp36
 70
     1
102
RTVSPropertyOp37
 70
     0
102
RTVSPropertyOp38
 70
     0
102
RTVSPropertyOp39
 70
     0
102
RTVSPropertyOp40
 70
     0
102
RTVSPropertyOp41
 70
     0
102
RTVSPropertyOp42
 70
     0
102
RTVSPropertyOp43
 70
     0
102
RTVSPropertyOp44
 70
     0
102
RTVSPropertyOp45
 70
     1
102
RTVSPropertyOp46
 70
     0
102
RTVSPropertyOp47
 70
     0
102
RTVSPropertyOp48
 70
     0
102
RTVSPropertyOp49
 70
     1
102
RTVSPropertyOp50
 70
     0
102
RTVSPropertyOp51
 70
     0
102
RTVSPropertyOp52
 70
     0
102
RTVSPropertyOp53
 70
     0
102
RTVSPropertyOp54
 70
     0
102
RTVSPropertyOp55
 70
     1
102
RTVSPropertyOp56
 70
     0
102
RTVSPropertyOp57
 70
     0
102
RTVSPropertyOp58
 70
     0
102
RTVSPropertyOp59
 70
     0
102
RTVSPropertyOp60
 70
     0
102
RTVSPropertyOp61
 70
     0
102
RTVSPropertyOp62
 70
     0
  0
XRECORD
  5
2C8
102
{ACAD_REACTORS
330
2C7
102
}
330
2C7
100
AcDbXrecord
280
     1
102
RTVSPost2010Prop28
280
     0
102
RTVSPost2010PropOp28
 70
     1
102
RTVSPost2010Prop29
280
     1
102
RTVSPost2010PropOp29
 70
     1
102
RTVSPost2010Prop30
280
     1
102
RTVSPost2010PropOp30
 70
     1
102
RTVSPost2010Prop31
280
     0
102
RTVSPost2010PropOp31
 70
     1
102
RTVSPost2010Prop32
280
     0
102
RTVSPost2010PropOp32
 70
     1
102
RTVSPost2010Prop33
280
     0
102
RTVSPost2010PropOp33
 70
     1
102
RTVSPost2010Prop34
280
     0
102
RTVSPost2010PropOp34
 70
     1
102
RTVSPost2010Prop35
280
     0
102
RTVSPost2010PropOp35
 70
     1
102
RTVSPost2010Prop36
280
     0
102
RTVSPost2010PropOp36
 70
     1
102
RTVSPost2010Prop37
 90
       50
102
RTVSPost2010PropOp37
 70
     1
102
RTVSPost2010Prop38
140
0.0
102
RTVSPost2010PropOp38
 70
     1
102
RTVSPost2010Prop39
140
1.0
102
RTVSPost2010PropOp39
 70
     1
102
RTVSPost2010Prop40
 90
        0
102
RTVSPost2010PropOp40
 70
     1
102
RTVSPost2010Prop41ColorIndex
 90
       18
102
RTVSPost2010Prop41ColorRGB
 90
        0
102
RTVSPost2010PropOp41
 70
     1
102
RTVSPost2010Prop42
 90
       50
102
RTVSPost2010PropOp42
 70
     1
102
RTVSPost2010Prop43
 90
        3
102
RTVSPost2010PropOp43
 70
     1
102
RTVSPost2010Prop44ColorIndex
 90
        5
102
RTVSPost2010Prop44ColorRGB
 90
      255
102
RTVSPost2010PropOp44
 70
     1
102
RTVSPost2010Prop45
280
     0
102
RTVSPost2010PropOp45
 70
     1
102
RTVSPost2010Prop46
 90
       50
102
RTVSPost2010PropOp46
 70
     1
102
RTVSPost2010Prop47
 90
       50
102
RTVSPost2010PropOp47
 70
     1
102
RTVSPost2010Prop48
 90
       50
102
RTVSPost2010PropOp48
 70
     1
102
RTVSPost2010Prop49
280
     0
102
RTVSPost2010PropOp49
 70
     1
102
RTVSPost2010Prop50
 90
       50
102
RTVSPost2010PropOp50
 70
     1
102
RTVSPost2010Prop51ColorIndex
 90
      256
102
RTVSPost2010Prop51ColorRGB
 90
-16777216
102
RTVSPost2010PropOp51
 70
     0
102
RTVSPost2010Prop52
140
1.0
102
RTVSPost2010PropOp52
 70
     0
102
RTVSPost2010Prop53
 90
        2
102
RTVSPost2010PropOp53
 70
     1
102
RTVSPost2010Prop54
  1
strokes_ogs.tif
102
RTVSPost2010PropOp54
 70
     1
102
RTVSPost2010Prop55
280
     0
102
RTVSPost2010PropOp55
 70
     1
102
RTVSPost2010Prop56
140
1.0
102
RTVSPost2010PropOp56
 70
     1
102
RTVSPost2010Prop57
140
1.0
102
RTVSPost2010PropOp57
 70
     1
102
RTVSPropertyOp0
 70
     1
102
RTVSPropertyOp1
 70
     1
102
RTVSPropertyOp2
 70
     1
102
RTVSPropertyOp3
 70
     1
102
RTVSPropertyOp4
 70
     1
102
RTVSPropertyOp5
 70
     1
102
RTVSPropertyOp6
 70
     1
102
RTVSPropertyOp7
 70
     1
102
RTVSPropertyOp8
 70
     1
102
RTVSPropertyOp9
 70
     1
102
RTVSPropertyOp10
 70
     1
102
RTVSPropertyOp11
 70
     1
102
RTVSPropertyOp12
 70
     1
102
RTVSPropertyOp13
 70
     1
102
RTVSPropertyOp14
 70
     1
102
RTVSPropertyOp15
 70
     1
102
RTVSPropertyOp16
 70
     1
102
RTVSPropertyOp17
 70
     1
102
RTVSPropertyOp18
 70
     1
102
RTVSPropertyOp19
 70
     1
102
RTVSPropertyOp20
 70
     1
102
RTVSPropertyOp21
 70
     1
102
RTVSPropertyOp22
 70
     1
102
RTVSPropertyOp23
 70
     1
102
RTVSPropertyOp24
 70
     1
102
RTVSPropertyOp25
 70
     1
102
RTVSPropertyOp26
 70
     1
102
RTVSPropertyOp27
 70
     1
102
RTVSPropertyOp28
 70
     1
102
RTVSPropertyOp29
 70
     1
102
RTVSPropertyOp30
 70
     1
102
RTVSPropertyOp31
 70
     1
102
RTVSPropertyOp32
 70
     1
102
RTVSPropertyOp33
 70
     1
102
RTVSPropertyOp34
 70
     1
102
RTVSPropertyOp35
 70
     1
102
RTVSPropertyOp36
 70
     1
102
RTVSPropertyOp37
 70
     1
102
RTVSPropertyOp38
 70
     1
102
RTVSPropertyOp39
 70
     1
102
RTVSPropertyOp40
 70
     1
102
RTVSPropertyOp41
 70
     1
102
RTVSPropertyOp42
 70
     1
102
RTVSPropertyOp43
 70
     1
102
RTVSPropertyOp44
 70
     1
102
RTVSPropertyOp45
 70
     1
102
RTVSPropertyOp46
 70
     1
102
RTVSPropertyOp47
 70
     1
102
RTVSPropertyOp48
 70
     1
102
RTVSPropertyOp49
 70
     1
102
RTVSPropertyOp50
 70
     1
102
RTVSPropertyOp51
 70
     0
102
RTVSPropertyOp52
 70
     0
102
RTVSPropertyOp53
 70
     1
102
RTVSPropertyOp54
 70
     1
102
RTVSPropertyOp55
 70
     1
102
RTVSPropertyOp56
 70
     1
102
RTVSPropertyOp57
 70
     1
102
RTVSPropertyOp58
 70
     1
102
RTVSPropertyOp59
 70
     1
102
RTVSPropertyOp60
 70
     1
102
RTVSPropertyOp61
 70
     1
102
RTVSPropertyOp62
 70
     1
  0
XRECORD
  5
2DE
102
{ACAD_REACTORS
330
2DD
102
}
330
2DD
100
AcDbXrecord
280
     1
102
RTVSPost2010Prop28
280
     0
102
RTVSPost2010PropOp28
 70
     1
102
RTVSPost2010Prop29
280
     1
102
RTVSPost2010PropOp29
 70
     1
102
RTVSPost2010Prop30
280
     1
102
RTVSPost2010PropOp30
 70
     1
102
RTVSPost2010Prop31
280
     0
102
RTVSPost2010PropOp31
 70
     1
102
RTVSPost2010Prop32
280
     0
102
RTVSPost2010PropOp32
 70
     1
102
RTVSPost2010Prop33
280
     0
102
RTVSPost2010PropOp33
 70
     1
102
RTVSPost2010Prop34
280
     0
102
RTVSPost2010PropOp34
 70
     1
102
RTVSPost2010Prop35
280
     0
102
RTVSPost2010PropOp35
 70
     1
102
RTVSPost2010Prop36
280
     0
102
RTVSPost2010PropOp36
 70
     1
102
RTVSPost2010Prop37
 90
       50
102
RTVSPost2010PropOp37
 70
     1
102
RTVSPost2010Prop38
140
0.0
102
RTVSPost2010PropOp38
 70
     1
102
RTVSPost2010Prop39
140
1.0
102
RTVSPost2010PropOp39
 70
     1
102
RTVSPost2010Prop40
 90
        0
102
RTVSPost2010PropOp40
 70
     1
102
RTVSPost2010Prop41ColorIndex
 90
       18
102
RTVSPost2010Prop41ColorRGB
 90
        0
102
RTVSPost2010PropOp41
 70
     1
102
RTVSPost2010Prop42
 90
       50
102
RTVSPost2010PropOp42
 70
     1
102
RTVSPost2010Prop43
 90
        3
102
RTVSPost2010PropOp43
 70
     1
102
RTVSPost2010Prop44ColorIndex
 90
        5
102
RTVSPost2010Prop44ColorRGB
 90
      255
102
RTVSPost2010PropOp44
 70
     1
102
RTVSPost2010Prop45
280
     0
102
RTVSPost2010PropOp45
 70
     1
102
RTVSPost2010Prop46
 90
       50
102
RTVSPost2010PropOp46
 70
     1
102
RTVSPost2010Prop47
 90
       50
102
RTVSPost2010PropOp47
 70
     1
102
RTVSPost2010Prop48
 90
       50
102
RTVSPost2010PropOp48
 70
     1
102
RTVSPost2010Prop49
280
     0
102
RTVSPost2010PropOp49
 70
     1
102
RTVSPost2010Prop50
 90
       50
102
RTVSPost2010PropOp50
 70
     1
102
RTVSPost2010Prop51ColorIndex
 90
      256
102
RTVSPost2010Prop51ColorRGB
 90
-16777216
102
RTVSPost2010PropOp51
 70
     0
102
RTVSPost2010Prop52
140
1.0
102
RTVSPost2010PropOp52
 70
     0
102
RTVSPost2010Prop53
 90
        2
102
RTVSPost2010PropOp53
 70
     1
102
RTVSPost2010Prop54
  1
strokes_ogs.tif
102
RTVSPost2010PropOp54
 70
     1
102
RTVSPost2010Prop55
280
     0
102
RTVSPost2010PropOp55
 70
     1
102
RTVSPost2010Prop56
140
1.0
102
RTVSPost2010PropOp56
 70
     1
102
RTVSPost2010Prop57
140
1.0
102
RTVSPost2010PropOp57
 70
     1
102
RTVSPropertyOp0
 70
     1
102
RTVSPropertyOp1
 70
     1
102
RTVSPropertyOp2
 70
     1
102
RTVSPropertyOp3
 70
     1
102
RTVSPropertyOp4
 70
     1
102
RTVSPropertyOp5
 70
     1
102
RTVSPropertyOp6
 70
     1
102
RTVSPropertyOp7
 70
     1
102
RTVSPropertyOp8
 70
     1
102
RTVSPropertyOp9
 70
     1
102
RTVSPropertyOp10
 70
     1
102
RTVSPropertyOp11
 70
     1
102
RTVSPropertyOp12
 70
     1
102
RTVSPropertyOp13
 70
     1
102
RTVSPropertyOp14
 70
     1
102
RTVSPropertyOp15
 70
     1
102
RTVSPropertyOp16
 70
     1
102
RTVSPropertyOp17
 70
     1
102
RTVSPropertyOp18
 70
     1
102
RTVSPropertyOp19
 70
     1
102
RTVSPropertyOp20
 70
     1
102
RTVSPropertyOp21
 70
     1
102
RTVSPropertyOp22
 70
     1
102
RTVSPropertyOp23
 70
     1
102
RTVSPropertyOp24
 70
     1
102
RTVSPropertyOp25
 70
     1
102
RTVSPropertyOp26
 70
     1
102
RTVSPropertyOp27
 70
     1
102
RTVSPropertyOp28
 70
     1
102
RTVSPropertyOp29
 70
     1
102
RTVSPropertyOp30
 70
     1
102
RTVSPropertyOp31
 70
     1
102
RTVSPropertyOp32
 70
     1
102
RTVSPropertyOp33
 70
     1
102
RTVSPropertyOp34
 70
     1
102
RTVSPropertyOp35
 70
     1
102
RTVSPropertyOp36
 70
     1
102
RTVSPropertyOp37
 70
     1
102
RTVSPropertyOp38
 70
     1
102
RTVSPropertyOp39
 70
     1
102
RTVSPropertyOp40
 70
     1
102
RTVSPropertyOp41
 70
     1
102
RTVSPropertyOp42
 70
     1
102
RTVSPropertyOp43
 70
     1
102
RTVSPropertyOp44
 70
     1
102
RTVSPropertyOp45
 70
     1
102
RTVSPropertyOp46
 70
     1
102
RTVSPropertyOp47
 70
     1
102
RTVSPropertyOp48
 70
     1
102
RTVSPropertyOp49
 70
     1
102
RTVSPropertyOp50
 70
     1
102
RTVSPropertyOp51
 70
     0
102
RTVSPropertyOp52
 70
     0
102
RTVSPropertyOp53
 70
     1
102
RTVSPropertyOp54
 70
     1
102
RTVSPropertyOp55
 70
     1
102
RTVSPropertyOp56
 70
     1
102
RTVSPropertyOp57
 70
     1
102
RTVSPropertyOp58
 70
     1
102
RTVSPropertyOp59
 70
     1
102
RTVSPropertyOp60
 70
     1
102
RTVSPropertyOp61
 70
     1
102
RTVSPropertyOp62
 70
     1
  0
XRECORD
  5
2DC
102
{ACAD_REACTORS
330
2DB
102
}
330
2DB
100
AcDbXrecord
280
     1
102
RTVSPost2010Prop28
280
     0
102
RTVSPost2010PropOp28
 70
     1
102
RTVSPost2010Prop29
280
     1
102
RTVSPost2010PropOp29
 70
     1
102
RTVSPost2010Prop30
280
     1
102
RTVSPost2010PropOp30
 70
     1
102
RTVSPost2010Prop31
280
     0
102
RTVSPost2010PropOp31
 70
     1
102
RTVSPost2010Prop32
280
     0
102
RTVSPost2010PropOp32
 70
     1
102
RTVSPost2010Prop33
280
     0
102
RTVSPost2010PropOp33
 70
     1
102
RTVSPost2010Prop34
280
     0
102
RTVSPost2010PropOp34
 70
     1
102
RTVSPost2010Prop35
280
     0
102
RTVSPost2010PropOp35
 70
     1
102
RTVSPost2010Prop36
280
     0
102
RTVSPost2010PropOp36
 70
     1
102
RTVSPost2010Prop37
 90
       50
102
RTVSPost2010PropOp37
 70
     1
102
RTVSPost2010Prop38
140
0.0
102
RTVSPost2010PropOp38
 70
     1
102
RTVSPost2010Prop39
140
1.0
102
RTVSPost2010PropOp39
 70
     1
102
RTVSPost2010Prop40
 90
        0
102
RTVSPost2010PropOp40
 70
     1
102
RTVSPost2010Prop41ColorIndex
 90
       18
102
RTVSPost2010Prop41ColorRGB
 90
        0
102
RTVSPost2010PropOp41
 70
     1
102
RTVSPost2010Prop42
 90
       50
102
RTVSPost2010PropOp42
 70
     1
102
RTVSPost2010Prop43
 90
        3
102
RTVSPost2010PropOp43
 70
     1
102
RTVSPost2010Prop44ColorIndex
 90
        5
102
RTVSPost2010Prop44ColorRGB
 90
      255
102
RTVSPost2010PropOp44
 70
     1
102
RTVSPost2010Prop45
280
     0
102
RTVSPost2010PropOp45
 70
     1
102
RTVSPost2010Prop46
 90
       50
102
RTVSPost2010PropOp46
 70
     1
102
RTVSPost2010Prop47
 90
       50
102
RTVSPost2010PropOp47
 70
     1
102
RTVSPost2010Prop48
 90
       50
102
RTVSPost2010PropOp48
 70
     1
102
RTVSPost2010Prop49
280
     0
102
RTVSPost2010PropOp49
 70
     1
102
RTVSPost2010Prop50
 90
       50
102
RTVSPost2010PropOp50
 70
     1
102
RTVSPost2010Prop51ColorIndex
 90
      256
102
RTVSPost2010Prop51ColorRGB
 90
-16777216
102
RTVSPost2010PropOp51
 70
     0
102
RTVSPost2010Prop52
140
1.0
102
RTVSPost2010PropOp52
 70
     0
102
RTVSPost2010Prop53
 90
        2
102
RTVSPost2010PropOp53
 70
     1
102
RTVSPost2010Prop54
  1
strokes_ogs.tif
102
RTVSPost2010PropOp54
 70
     1
102
RTVSPost2010Prop55
280
     0
102
RTVSPost2010PropOp55
 70
     1
102
RTVSPost2010Prop56
140
1.0
102
RTVSPost2010PropOp56
 70
     1
102
RTVSPost2010Prop57
140
1.0
102
RTVSPost2010PropOp57
 70
     1
102
RTVSPropertyOp0
 70
     1
102
RTVSPropertyOp1
 70
     1
102
RTVSPropertyOp2
 70
     1
102
RTVSPropertyOp3
 70
     1
102
RTVSPropertyOp4
 70
     1
102
RTVSPropertyOp5
 70
     1
102
RTVSPropertyOp6
 70
     1
102
RTVSPropertyOp7
 70
     1
102
RTVSPropertyOp8
 70
     1
102
RTVSPropertyOp9
 70
     1
102
RTVSPropertyOp10
 70
     1
102
RTVSPropertyOp11
 70
     1
102
RTVSPropertyOp12
 70
     1
102
RTVSPropertyOp13
 70
     1
102
RTVSPropertyOp14
 70
     1
102
RTVSPropertyOp15
 70
     1
102
RTVSPropertyOp16
 70
     1
102
RTVSPropertyOp17
 70
     1
102
RTVSPropertyOp18
 70
     1
102
RTVSPropertyOp19
 70
     1
102
RTVSPropertyOp20
 70
     1
102
RTVSPropertyOp21
 70
     1
102
RTVSPropertyOp22
 70
     1
102
RTVSPropertyOp23
 70
     1
102
RTVSPropertyOp24
 70
     1
102
RTVSPropertyOp25
 70
     1
102
RTVSPropertyOp26
 70
     1
102
RTVSPropertyOp27
 70
     1
102
RTVSPropertyOp28
 70
     1
102
RTVSPropertyOp29
 70
     1
102
RTVSPropertyOp30
 70
     1
102
RTVSPropertyOp31
 70
     1
102
RTVSPropertyOp32
 70
     1
102
RTVSPropertyOp33
 70
     1
102
RTVSPropertyOp34
 70
     1
102
RTVSPropertyOp35
 70
     1
102
RTVSPropertyOp36
 70
     1
102
RTVSPropertyOp37
 70
     1
102
RTVSPropertyOp38
 70
     1
102
RTVSPropertyOp39
 70
     1
102
RTVSPropertyOp40
 70
     1
102
RTVSPropertyOp41
 70
     1
102
RTVSPropertyOp42
 70
     1
102
RTVSPropertyOp43
 70
     1
102
RTVSPropertyOp44
 70
     1
102
RTVSPropertyOp45
 70
     1
102
RTVSPropertyOp46
 70
     1
102
RTVSPropertyOp47
 70
     1
102
RTVSPropertyOp48
 70
     1
102
RTVSPropertyOp49
 70
     1
102
RTVSPropertyOp50
 70
     1
102
RTVSPropertyOp51
 70
     0
102
RTVSPropertyOp52
 70
     0
102
RTVSPropertyOp53
 70
     1
102
RTVSPropertyOp54
 70
     1
102
RTVSPropertyOp55
 70
     1
102
RTVSPropertyOp56
 70
     1
102
RTVSPropertyOp57
 70
     1
102
RTVSPropertyOp58
 70
     1
102
RTVSPropertyOp59
 70
     1
102
RTVSPropertyOp60
 70
     1
102
RTVSPropertyOp61
 70
     1
102
RTVSPropertyOp62
 70
     1
  0
XRECORD
  5
2D6
102
{ACAD_REACTORS
330
2D5
102
}
330
2D5
100
AcDbXrecord
280
     1
102
RTVSPost2010Prop28
280
     0
102
RTVSPost2010PropOp28
 70
     1
102
RTVSPost2010Prop29
280
     1
102
RTVSPost2010PropOp29
 70
     1
102
RTVSPost2010Prop30
280
     1
102
RTVSPost2010PropOp30
 70
     1
102
RTVSPost2010Prop31
280
     0
102
RTVSPost2010PropOp31
 70
     1
102
RTVSPost2010Prop32
280
     0
102
RTVSPost2010PropOp32
 70
     1
102
RTVSPost2010Prop33
280
     0
102
RTVSPost2010PropOp33
 70
     1
102
RTVSPost2010Prop34
280
     0
102
RTVSPost2010PropOp34
 70
     1
102
RTVSPost2010Prop35
280
     0
102
RTVSPost2010PropOp35
 70
     1
102
RTVSPost2010Prop36
280
     0
102
RTVSPost2010PropOp36
 70
     1
102
RTVSPost2010Prop37
 90
       50
102
RTVSPost2010PropOp37
 70
     1
102
RTVSPost2010Prop38
140
0.0
102
RTVSPost2010PropOp38
 70
     1
102
RTVSPost2010Prop39
140
1.0
102
RTVSPost2010PropOp39
 70
     1
102
RTVSPost2010Prop40
 90
        0
102
RTVSPost2010PropOp40
 70
     1
102
RTVSPost2010Prop41ColorIndex
 90
       18
102
RTVSPost2010Prop41ColorRGB
 90
        0
102
RTVSPost2010PropOp41
 70
     1
102
RTVSPost2010Prop42
 90
       50
102
RTVSPost2010PropOp42
 70
     1
102
RTVSPost2010Prop43
 90
        3
102
RTVSPost2010PropOp43
 70
     1
102
RTVSPost2010Prop44ColorIndex
 90
        5
102
RTVSPost2010Prop44ColorRGB
 90
      255
102
RTVSPost2010PropOp44
 70
     1
102
RTVSPost2010Prop45
280
     0
102
RTVSPost2010PropOp45
 70
     1
102
RTVSPost2010Prop46
 90
       50
102
RTVSPost2010PropOp46
 70
     1
102
RTVSPost2010Prop47
 90
       50
102
RTVSPost2010PropOp47
 70
     1
102
RTVSPost2010Prop48
 90
       50
102
RTVSPost2010PropOp48
 70
     1
102
RTVSPost2010Prop49
280
     0
102
RTVSPost2010PropOp49
 70
     1
102
RTVSPost2010Prop50
 90
       50
102
RTVSPost2010PropOp50
 70
     1
102
RTVSPost2010Prop51ColorIndex
 90
      256
102
RTVSPost2010Prop51ColorRGB
 90
-16777216
102
RTVSPost2010PropOp51
 70
     0
102
RTVSPost2010Prop52
140
1.0
102
RTVSPost2010PropOp52
 70
     0
102
RTVSPost2010Prop53
 90
        2
102
RTVSPost2010PropOp53
 70
     1
102
RTVSPost2010Prop54
  1
strokes_ogs.tif
102
RTVSPost2010PropOp54
 70
     1
102
RTVSPost2010Prop55
280
     0
102
RTVSPost2010PropOp55
 70
     1
102
RTVSPost2010Prop56
140
1.0
102
RTVSPost2010PropOp56
 70
     1
102
RTVSPost2010Prop57
140
1.0
102
RTVSPost2010PropOp57
 70
     1
102
RTVSPropertyOp0
 70
     1
102
RTVSPropertyOp1
 70
     1
102
RTVSPropertyOp2
 70
     1
102
RTVSPropertyOp3
 70
     1
102
RTVSPropertyOp4
 70
     1
102
RTVSPropertyOp5
 70
     1
102
RTVSPropertyOp6
 70
     1
102
RTVSPropertyOp7
 70
     1
102
RTVSPropertyOp8
 70
     1
102
RTVSPropertyOp9
 70
     1
102
RTVSPropertyOp10
 70
     1
102
RTVSPropertyOp11
 70
     1
102
RTVSPropertyOp12
 70
     1
102
RTVSPropertyOp13
 70
     1
102
RTVSPropertyOp14
 70
     1
102
RTVSPropertyOp15
 70
     1
102
RTVSPropertyOp16
 70
     1
102
RTVSPropertyOp17
 70
     1
102
RTVSPropertyOp18
 70
     1
102
RTVSPropertyOp19
 70
     1
102
RTVSPropertyOp20
 70
     1
102
RTVSPropertyOp21
 70
     1
102
RTVSPropertyOp22
 70
     1
102
RTVSPropertyOp23
 70
     1
102
RTVSPropertyOp24
 70
     1
102
RTVSPropertyOp25
 70
     1
102
RTVSPropertyOp26
 70
     1
102
RTVSPropertyOp27
 70
     1
102
RTVSPropertyOp28
 70
     1
102
RTVSPropertyOp29
 70
     1
102
RTVSPropertyOp30
 70
     1
102
RTVSPropertyOp31
 70
     1
102
RTVSPropertyOp32
 70
     1
102
RTVSPropertyOp33
 70
     1
102
RTVSPropertyOp34
 70
     1
102
RTVSPropertyOp35
 70
     1
102
RTVSPropertyOp36
 70
     1
102
RTVSPropertyOp37
 70
     1
102
RTVSPropertyOp38
 70
     1
102
RTVSPropertyOp39
 70
     1
102
RTVSPropertyOp40
 70
     1
102
RTVSPropertyOp41
 70
     1
102
RTVSPropertyOp42
 70
     1
102
RTVSPropertyOp43
 70
     1
102
RTVSPropertyOp44
 70
     1
102
RTVSPropertyOp45
 70
     1
102
RTVSPropertyOp46
 70
     1
102
RTVSPropertyOp47
 70
     1
102
RTVSPropertyOp48
 70
     1
102
RTVSPropertyOp49
 70
     1
102
RTVSPropertyOp50
 70
     1
102
RTVSPropertyOp51
 70
     0
102
RTVSPropertyOp52
 70
     0
102
RTVSPropertyOp53
 70
     1
102
RTVSPropertyOp54
 70
     1
102
RTVSPropertyOp55
 70
     1
102
RTVSPropertyOp56
 70
     1
102
RTVSPropertyOp57
 70
     1
102
RTVSPropertyOp58
 70
     1
102
RTVSPropertyOp59
 70
     1
102
RTVSPropertyOp60
 70
     1
102
RTVSPropertyOp61
 70
     1
102
RTVSPropertyOp62
 70
     1
  0
XRECORD
  5
2D8
102
{ACAD_REACTORS
330
2D7
102
}
330
2D7
100
AcDbXrecord
280
     1
102
RTVSPost2010Prop28
280
     0
102
RTVSPost2010PropOp28
 70
     1
102
RTVSPost2010Prop29
280
     1
102
RTVSPost2010PropOp29
 70
     1
102
RTVSPost2010Prop30
280
     1
102
RTVSPost2010PropOp30
 70
     1
102
RTVSPost2010Prop31
280
     0
102
RTVSPost2010PropOp31
 70
     1
102
RTVSPost2010Prop32
280
     0
102
RTVSPost2010PropOp32
 70
     1
102
RTVSPost2010Prop33
280
     0
102
RTVSPost2010PropOp33
 70
     1
102
RTVSPost2010Prop34
280
     0
102
RTVSPost2010PropOp34
 70
     1
102
RTVSPost2010Prop35
280
     0
102
RTVSPost2010PropOp35
 70
     1
102
RTVSPost2010Prop36
280
     0
102
RTVSPost2010PropOp36
 70
     1
102
RTVSPost2010Prop37
 90
       50
102
RTVSPost2010PropOp37
 70
     1
102
RTVSPost2010Prop38
140
0.0
102
RTVSPost2010PropOp38
 70
     1
102
RTVSPost2010Prop39
140
1.0
102
RTVSPost2010PropOp39
 70
     1
102
RTVSPost2010Prop40
 90
        0
102
RTVSPost2010PropOp40
 70
     1
102
RTVSPost2010Prop41ColorIndex
 90
       18
102
RTVSPost2010Prop41ColorRGB
 90
        0
102
RTVSPost2010PropOp41
 70
     1
102
RTVSPost2010Prop42
 90
       50
102
RTVSPost2010PropOp42
 70
     1
102
RTVSPost2010Prop43
 90
        3
102
RTVSPost2010PropOp43
 70
     1
102
RTVSPost2010Prop44ColorIndex
 90
        5
102
RTVSPost2010Prop44ColorRGB
 90
      255
102
RTVSPost2010PropOp44
 70
     1
102
RTVSPost2010Prop45
280
     0
102
RTVSPost2010PropOp45
 70
     1
102
RTVSPost2010Prop46
 90
       50
102
RTVSPost2010PropOp46
 70
     1
102
RTVSPost2010Prop47
 90
       50
102
RTVSPost2010PropOp47
 70
     1
102
RTVSPost2010Prop48
 90
       50
102
RTVSPost2010PropOp48
 70
     1
102
RTVSPost2010Prop49
280
     0
102
RTVSPost2010PropOp49
 70
     1
102
RTVSPost2010Prop50
 90
       50
102
RTVSPost2010PropOp50
 70
     1
102
RTVSPost2010Prop51ColorIndex
 90
      256
102
RTVSPost2010Prop51ColorRGB
 90
-16777216
102
RTVSPost2010PropOp51
 70
     0
102
RTVSPost2010Prop52
140
1.0
102
RTVSPost2010PropOp52
 70
     0
102
RTVSPost2010Prop53
 90
        2
102
RTVSPost2010PropOp53
 70
     1
102
RTVSPost2010Prop54
  1
strokes_ogs.tif
102
RTVSPost2010PropOp54
 70
     1
102
RTVSPost2010Prop55
280
     0
102
RTVSPost2010PropOp55
 70
     1
102
RTVSPost2010Prop56
140
1.0
102
RTVSPost2010PropOp56
 70
     1
102
RTVSPost2010Prop57
140
1.0
102
RTVSPost2010PropOp57
 70
     1
102
RTVSPropertyOp0
 70
     1
102
RTVSPropertyOp1
 70
     1
102
RTVSPropertyOp2
 70
     1
102
RTVSPropertyOp3
 70
     1
102
RTVSPropertyOp4
 70
     1
102
RTVSPropertyOp5
 70
     1
102
RTVSPropertyOp6
 70
     1
102
RTVSPropertyOp7
 70
     1
102
RTVSPropertyOp8
 70
     1
102
RTVSPropertyOp9
 70
     1
102
RTVSPropertyOp10
 70
     1
102
RTVSPropertyOp11
 70
     1
102
RTVSPropertyOp12
 70
     1
102
RTVSPropertyOp13
 70
     1
102
RTVSPropertyOp14
 70
     1
102
RTVSPropertyOp15
 70
     1
102
RTVSPropertyOp16
 70
     1
102
RTVSPropertyOp17
 70
     1
102
RTVSPropertyOp18
 70
     1
102
RTVSPropertyOp19
 70
     1
102
RTVSPropertyOp20
 70
     1
102
RTVSPropertyOp21
 70
     1
102
RTVSPropertyOp22
 70
     1
102
RTVSPropertyOp23
 70
     1
102
RTVSPropertyOp24
 70
     1
102
RTVSPropertyOp25
 70
     1
102
RTVSPropertyOp26
 70
     1
102
RTVSPropertyOp27
 70
     1
102
RTVSPropertyOp28
 70
     1
102
RTVSPropertyOp29
 70
     1
102
RTVSPropertyOp30
 70
     1
102
RTVSPropertyOp31
 70
     1
102
RTVSPropertyOp32
 70
     1
102
RTVSPropertyOp33
 70
     1
102
RTVSPropertyOp34
 70
     1
102
RTVSPropertyOp35
 70
     1
102
RTVSPropertyOp36
 70
     1
102
RTVSPropertyOp37
 70
     1
102
RTVSPropertyOp38
 70
     1
102
RTVSPropertyOp39
 70
     1
102
RTVSPropertyOp40
 70
     1
102
RTVSPropertyOp41
 70
     1
102
RTVSPropertyOp42
 70
     1
102
RTVSPropertyOp43
 70
     1
102
RTVSPropertyOp44
 70
     1
102
RTVSPropertyOp45
 70
     1
102
RTVSPropertyOp46
 70
     1
102
RTVSPropertyOp47
 70
     1
102
RTVSPropertyOp48
 70
     1
102
RTVSPropertyOp49
 70
     1
102
RTVSPropertyOp50
 70
     1
102
RTVSPropertyOp51
 70
     0
102
RTVSPropertyOp52
 70
     0
102
RTVSPropertyOp53
 70
     1
102
RTVSPropertyOp54
 70
     1
102
RTVSPropertyOp55
 70
     1
102
RTVSPropertyOp56
 70
     1
102
RTVSPropertyOp57
 70
     1
102
RTVSPropertyOp58
 70
     1
102
RTVSPropertyOp59
 70
     1
102
RTVSPropertyOp60
 70
     1
102
RTVSPropertyOp61
 70
     1
102
RTVSPropertyOp62
 70
     1
  0
XRECORD
  5
2CE
102
{ACAD_REACTORS
330
2CD
102
}
330
2CD
100
AcDbXrecord
280
     1
102
RTVSPost2010Prop28
280
     0
102
RTVSPost2010PropOp28
 70
     1
102
RTVSPost2010Prop29
280
     1
102
RTVSPost2010PropOp29
 70
     1
102
RTVSPost2010Prop30
280
     1
102
RTVSPost2010PropOp30
 70
     1
102
RTVSPost2010Prop31
280
     0
102
RTVSPost2010PropOp31
 70
     1
102
RTVSPost2010Prop32
280
     0
102
RTVSPost2010PropOp32
 70
     1
102
RTVSPost2010Prop33
280
     0
102
RTVSPost2010PropOp33
 70
     1
102
RTVSPost2010Prop34
280
     0
102
RTVSPost2010PropOp34
 70
     1
102
RTVSPost2010Prop35
280
     0
102
RTVSPost2010PropOp35
 70
     1
102
RTVSPost2010Prop36
280
     0
102
RTVSPost2010PropOp36
 70
     1
102
RTVSPost2010Prop37
 90
       50
102
RTVSPost2010PropOp37
 70
     1
102
RTVSPost2010Prop38
140
0.0
102
RTVSPost2010PropOp38
 70
     1
102
RTVSPost2010Prop39
140
1.0
102
RTVSPost2010PropOp39
 70
     1
102
RTVSPost2010Prop40
 90
        0
102
RTVSPost2010PropOp40
 70
     1
102
RTVSPost2010Prop41ColorIndex
 90
       18
102
RTVSPost2010Prop41ColorRGB
 90
        0
102
RTVSPost2010PropOp41
 70
     1
102
RTVSPost2010Prop42
 90
       50
102
RTVSPost2010PropOp42
 70
     1
102
RTVSPost2010Prop43
 90
        3
102
RTVSPost2010PropOp43
 70
     1
102
RTVSPost2010Prop44ColorIndex
 90
        5
102
RTVSPost2010Prop44ColorRGB
 90
      255
102
RTVSPost2010PropOp44
 70
     1
102
RTVSPost2010Prop45
280
     0
102
RTVSPost2010PropOp45
 70
     1
102
RTVSPost2010Prop46
 90
       50
102
RTVSPost2010PropOp46
 70
     1
102
RTVSPost2010Prop47
 90
       50
102
RTVSPost2010PropOp47
 70
     1
102
RTVSPost2010Prop48
 90
       50
102
RTVSPost2010PropOp48
 70
     1
102
RTVSPost2010Prop49
280
     0
102
RTVSPost2010PropOp49
 70
     1
102
RTVSPost2010Prop50
 90
       50
102
RTVSPost2010PropOp50
 70
     1
102
RTVSPost2010Prop51ColorIndex
 90
      256
102
RTVSPost2010Prop51ColorRGB
 90
-16777216
102
RTVSPost2010PropOp51
 70
     0
102
RTVSPost2010Prop52
140
1.0
102
RTVSPost2010PropOp52
 70
     0
102
RTVSPost2010Prop53
 90
        2
102
RTVSPost2010PropOp53
 70
     1
102
RTVSPost2010Prop54
  1
strokes_ogs.tif
102
RTVSPost2010PropOp54
 70
     1
102
RTVSPost2010Prop55
280
     0
102
RTVSPost2010PropOp55
 70
     1
102
RTVSPost2010Prop56
140
1.0
102
RTVSPost2010PropOp56
 70
     1
102
RTVSPost2010Prop57
140
1.0
102
RTVSPost2010PropOp57
 70
     1
102
RTVSPropertyOp0
 70
     1
102
RTVSPropertyOp1
 70
     1
102
RTVSPropertyOp2
 70
     1
102
RTVSPropertyOp3
 70
     1
102
RTVSPropertyOp4
 70
     1
102
RTVSPropertyOp5
 70
     1
102
RTVSPropertyOp6
 70
     1
102
RTVSPropertyOp7
 70
     1
102
RTVSPropertyOp8
 70
     1
102
RTVSPropertyOp9
 70
     1
102
RTVSPropertyOp10
 70
     1
102
RTVSPropertyOp11
 70
     1
102
RTVSPropertyOp12
 70
     1
102
RTVSPropertyOp13
 70
     1
102
RTVSPropertyOp14
 70
     1
102
RTVSPropertyOp15
 70
     1
102
RTVSPropertyOp16
 70
     1
102
RTVSPropertyOp17
 70
     1
102
RTVSPropertyOp18
 70
     1
102
RTVSPropertyOp19
 70
     1
102
RTVSPropertyOp20
 70
     1
102
RTVSPropertyOp21
 70
     1
102
RTVSPropertyOp22
 70
     1
102
RTVSPropertyOp23
 70
     1
102
RTVSPropertyOp24
 70
     1
102
RTVSPropertyOp25
 70
     1
102
RTVSPropertyOp26
 70
     1
102
RTVSPropertyOp27
 70
     1
102
RTVSPropertyOp28
 70
     1
102
RTVSPropertyOp29
 70
     1
102
RTVSPropertyOp30
 70
     1
102
RTVSPropertyOp31
 70
     1
102
RTVSPropertyOp32
 70
     1
102
RTVSPropertyOp33
 70
     1
102
RTVSPropertyOp34
 70
     1
102
RTVSPropertyOp35
 70
     1
102
RTVSPropertyOp36
 70
     1
102
RTVSPropertyOp37
 70
     1
102
RTVSPropertyOp38
 70
     1
102
RTVSPropertyOp39
 70
     1
102
RTVSPropertyOp40
 70
     1
102
RTVSPropertyOp41
 70
     1
102
RTVSPropertyOp42
 70
     1
102
RTVSPropertyOp43
 70
     1
102
RTVSPropertyOp44
 70
     1
102
RTVSPropertyOp45
 70
     1
102
RTVSPropertyOp46
 70
     1
102
RTVSPropertyOp47
 70
     1
102
RTVSPropertyOp48
 70
     1
102
RTVSPropertyOp49
 70
     1
102
RTVSPropertyOp50
 70
     1
102
RTVSPropertyOp51
 70
     0
102
RTVSPropertyOp52
 70
     0
102
RTVSPropertyOp53
 70
     1
102
RTVSPropertyOp54
 70
     1
102
RTVSPropertyOp55
 70
     1
102
RTVSPropertyOp56
 70
     1
102
RTVSPropertyOp57
 70
     1
102
RTVSPropertyOp58
 70
     1
102
RTVSPropertyOp59
 70
     1
102
RTVSPropertyOp60
 70
     1
102
RTVSPropertyOp61
 70
     1
102
RTVSPropertyOp62
 70
     1
  0
XRECORD
  5
2C2
102
{ACAD_REACTORS
330
2C1
102
}
330
2C1
100
AcDbXrecord
280
     1
102
RTVSPost2010Prop28
280
     0
102
RTVSPost2010PropOp28
 70
     1
102
RTVSPost2010Prop29
280
     1
102
RTVSPost2010PropOp29
 70
     1
102
RTVSPost2010Prop30
280
     1
102
RTVSPost2010PropOp30
 70
     1
102
RTVSPost2010Prop31
280
     0
102
RTVSPost2010PropOp31
 70
     1
102
RTVSPost2010Prop32
280
     0
102
RTVSPost2010PropOp32
 70
     1
102
RTVSPost2010Prop33
280
     0
102
RTVSPost2010PropOp33
 70
     1
102
RTVSPost2010Prop34
280
     0
102
RTVSPost2010PropOp34
 70
     1
102
RTVSPost2010Prop35
280
     0
102
RTVSPost2010PropOp35
 70
     1
102
RTVSPost2010Prop36
280
     0
102
RTVSPost2010PropOp36
 70
     1
102
RTVSPost2010Prop37
 90
       50
102
RTVSPost2010PropOp37
 70
     1
102
RTVSPost2010Prop38
140
0.0
102
RTVSPost2010PropOp38
 70
     1
102
RTVSPost2010Prop39
140
1.0
102
RTVSPost2010PropOp39
 70
     1
102
RTVSPost2010Prop40
 90
        0
102
RTVSPost2010PropOp40
 70
     1
102
RTVSPost2010Prop41ColorIndex
 90
       18
102
RTVSPost2010Prop41ColorRGB
 90
        0
102
RTVSPost2010PropOp41
 70
     1
102
RTVSPost2010Prop42
 90
       50
102
RTVSPost2010PropOp42
 70
     1
102
RTVSPost2010Prop43
 90
        3
102
RTVSPost2010PropOp43
 70
     1
102
RTVSPost2010Prop44ColorIndex
 90
        5
102
RTVSPost2010Prop44ColorRGB
 90
      255
102
RTVSPost2010PropOp44
 70
     1
102
RTVSPost2010Prop45
280
     0
102
RTVSPost2010PropOp45
 70
     1
102
RTVSPost2010Prop46
 90
       50
102
RTVSPost2010PropOp46
 70
     1
102
RTVSPost2010Prop47
 90
       50
102
RTVSPost2010PropOp47
 70
     1
102
RTVSPost2010Prop48
 90
       50
102
RTVSPost2010PropOp48
 70
     1
102
RTVSPost2010Prop49
280
     0
102
RTVSPost2010PropOp49
 70
     1
102
RTVSPost2010Prop50
 90
       50
102
RTVSPost2010PropOp50
 70
     1
102
RTVSPost2010Prop51ColorIndex
 90
      256
102
RTVSPost2010Prop51ColorRGB
 90
-16777216
102
RTVSPost2010PropOp51
 70
     0
102
RTVSPost2010Prop52
140
1.0
102
RTVSPost2010PropOp52
 70
     0
102
RTVSPost2010Prop53
 90
        2
102
RTVSPost2010PropOp53
 70
     1
102
RTVSPost2010Prop54
  1
strokes_ogs.tif
102
RTVSPost2010PropOp54
 70
     1
102
RTVSPost2010Prop55
280
     0
102
RTVSPost2010PropOp55
 70
     1
102
RTVSPost2010Prop56
140
1.0
102
RTVSPost2010PropOp56
 70
     1
102
RTVSPost2010Prop57
140
1.0
102
RTVSPost2010PropOp57
 70
     1
102
RTVSPropertyOp0
 70
     1
102
RTVSPropertyOp1
 70
     1
102
RTVSPropertyOp2
 70
     1
102
RTVSPropertyOp3
 70
     1
102
RTVSPropertyOp4
 70
     1
102
RTVSPropertyOp5
 70
     1
102
RTVSPropertyOp6
 70
     1
102
RTVSPropertyOp7
 70
     1
102
RTVSPropertyOp8
 70
     1
102
RTVSPropertyOp9
 70
     1
102
RTVSPropertyOp10
 70
     1
102
RTVSPropertyOp11
 70
     1
102
RTVSPropertyOp12
 70
     1
102
RTVSPropertyOp13
 70
     1
102
RTVSPropertyOp14
 70
     1
102
RTVSPropertyOp15
 70
     1
102
RTVSPropertyOp16
 70
     1
102
RTVSPropertyOp17
 70
     1
102
RTVSPropertyOp18
 70
     1
102
RTVSPropertyOp19
 70
     1
102
RTVSPropertyOp20
 70
     1
102
RTVSPropertyOp21
 70
     1
102
RTVSPropertyOp22
 70
     1
102
RTVSPropertyOp23
 70
     1
102
RTVSPropertyOp24
 70
     1
102
RTVSPropertyOp25
 70
     1
102
RTVSPropertyOp26
 70
     1
102
RTVSPropertyOp27
 70
     1
102
RTVSPropertyOp28
 70
     1
102
RTVSPropertyOp29
 70
     1
102
RTVSPropertyOp30
 70
     1
102
RTVSPropertyOp31
 70
     1
102
RTVSPropertyOp32
 70
     1
102
RTVSPropertyOp33
 70
     1
102
RTVSPropertyOp34
 70
     1
102
RTVSPropertyOp35
 70
     1
102
RTVSPropertyOp36
 70
     1
102
RTVSPropertyOp37
 70
     1
102
RTVSPropertyOp38
 70
     1
102
RTVSPropertyOp39
 70
     1
102
RTVSPropertyOp40
 70
     1
102
RTVSPropertyOp41
 70
     1
102
RTVSPropertyOp42
 70
     1
102
RTVSPropertyOp43
 70
     1
102
RTVSPropertyOp44
 70
     1
102
RTVSPropertyOp45
 70
     1
102
RTVSPropertyOp46
 70
     1
102
RTVSPropertyOp47
 70
     1
102
RTVSPropertyOp48
 70
     1
102
RTVSPropertyOp49
 70
     1
102
RTVSPropertyOp50
 70
     1
102
RTVSPropertyOp51
 70
     0
102
RTVSPropertyOp52
 70
     0
102
RTVSPropertyOp53
 70
     1
102
RTVSPropertyOp54
 70
     1
102
RTVSPropertyOp55
 70
     1
102
RTVSPropertyOp56
 70
     1
102
RTVSPropertyOp57
 70
     1
102
RTVSPropertyOp58
 70
     1
102
RTVSPropertyOp59
 70
     1
102
RTVSPropertyOp60
 70
     1
102
RTVSPropertyOp61
 70
     1
102
RTVSPropertyOp62
 70
     1
  0
XRECORD
  5
2DA
102
{ACAD_REACTORS
330
2D9
102
}
330
2D9
100
AcDbXrecord
280
     1
102
RTVSPost2010Prop28
280
     0
102
RTVSPost2010PropOp28
 70
     1
102
RTVSPost2010Prop29
280
     1
102
RTVSPost2010PropOp29
 70
     1
102
RTVSPost2010Prop30
280
     1
102
RTVSPost2010PropOp30
 70
     1
102
RTVSPost2010Prop31
280
     0
102
RTVSPost2010PropOp31
 70
     1
102
RTVSPost2010Prop32
280
     0
102
RTVSPost2010PropOp32
 70
     1
102
RTVSPost2010Prop33
280
     0
102
RTVSPost2010PropOp33
 70
     1
102
RTVSPost2010Prop34
280
     0
102
RTVSPost2010PropOp34
 70
     1
102
RTVSPost2010Prop35
280
     0
102
RTVSPost2010PropOp35
 70
     1
102
RTVSPost2010Prop36
280
     0
102
RTVSPost2010PropOp36
 70
     1
102
RTVSPost2010Prop37
 90
       50
102
RTVSPost2010PropOp37
 70
     1
102
RTVSPost2010Prop38
140
0.0
102
RTVSPost2010PropOp38
 70
     1
102
RTVSPost2010Prop39
140
1.0
102
RTVSPost2010PropOp39
 70
     1
102
RTVSPost2010Prop40
 90
        0
102
RTVSPost2010PropOp40
 70
     1
102
RTVSPost2010Prop41ColorIndex
 90
       18
102
RTVSPost2010Prop41ColorRGB
 90
        0
102
RTVSPost2010PropOp41
 70
     1
102
RTVSPost2010Prop42
 90
       50
102
RTVSPost2010PropOp42
 70
     1
102
RTVSPost2010Prop43
 90
        3
102
RTVSPost2010PropOp43
 70
     1
102
RTVSPost2010Prop44ColorIndex
 90
        5
102
RTVSPost2010Prop44ColorRGB
 90
      255
102
RTVSPost2010PropOp44
 70
     1
102
RTVSPost2010Prop45
280
     0
102
RTVSPost2010PropOp45
 70
     1
102
RTVSPost2010Prop46
 90
       50
102
RTVSPost2010PropOp46
 70
     1
102
RTVSPost2010Prop47
 90
       50
102
RTVSPost2010PropOp47
 70
     1
102
RTVSPost2010Prop48
 90
       50
102
RTVSPost2010PropOp48
 70
     1
102
RTVSPost2010Prop49
280
     0
102
RTVSPost2010PropOp49
 70
     1
102
RTVSPost2010Prop50
 90
       50
102
RTVSPost2010PropOp50
 70
     1
102
RTVSPost2010Prop51ColorIndex
 90
      256
102
RTVSPost2010Prop51ColorRGB
 90
-16777216
102
RTVSPost2010PropOp51
 70
     0
102
RTVSPost2010Prop52
140
1.0
102
RTVSPost2010PropOp52
 70
     0
102
RTVSPost2010Prop53
 90
        2
102
RTVSPost2010PropOp53
 70
     1
102
RTVSPost2010Prop54
  1
strokes_ogs.tif
102
RTVSPost2010PropOp54
 70
     1
102
RTVSPost2010Prop55
280
     0
102
RTVSPost2010PropOp55
 70
     1
102
RTVSPost2010Prop56
140
1.0
102
RTVSPost2010PropOp56
 70
     1
102
RTVSPost2010Prop57
140
1.0
102
RTVSPost2010PropOp57
 70
     1
102
RTVSPropertyOp0
 70
     1
102
RTVSPropertyOp1
 70
     1
102
RTVSPropertyOp2
 70
     1
102
RTVSPropertyOp3
 70
     1
102
RTVSPropertyOp4
 70
     1
102
RTVSPropertyOp5
 70
     1
102
RTVSPropertyOp6
 70
     1
102
RTVSPropertyOp7
 70
     1
102
RTVSPropertyOp8
 70
     1
102
RTVSPropertyOp9
 70
     1
102
RTVSPropertyOp10
 70
     1
102
RTVSPropertyOp11
 70
     1
102
RTVSPropertyOp12
 70
     1
102
RTVSPropertyOp13
 70
     1
102
RTVSPropertyOp14
 70
     1
102
RTVSPropertyOp15
 70
     1
102
RTVSPropertyOp16
 70
     1
102
RTVSPropertyOp17
 70
     1
102
RTVSPropertyOp18
 70
     1
102
RTVSPropertyOp19
 70
     1
102
RTVSPropertyOp20
 70
     1
102
RTVSPropertyOp21
 70
     1
102
RTVSPropertyOp22
 70
     1
102
RTVSPropertyOp23
 70
     1
102
RTVSPropertyOp24
 70
     1
102
RTVSPropertyOp25
 70
     1
102
RTVSPropertyOp26
 70
     1
102
RTVSPropertyOp27
 70
     1
102
RTVSPropertyOp28
 70
     1
102
RTVSPropertyOp29
 70
     1
102
RTVSPropertyOp30
 70
     1
102
RTVSPropertyOp31
 70
     1
102
RTVSPropertyOp32
 70
     1
102
RTVSPropertyOp33
 70
     1
102
RTVSPropertyOp34
 70
     1
102
RTVSPropertyOp35
 70
     1
102
RTVSPropertyOp36
 70
     1
102
RTVSPropertyOp37
 70
     1
102
RTVSPropertyOp38
 70
     1
102
RTVSPropertyOp39
 70
     1
102
RTVSPropertyOp40
 70
     1
102
RTVSPropertyOp41
 70
     1
102
RTVSPropertyOp42
 70
     1
102
RTVSPropertyOp43
 70
     1
102
RTVSPropertyOp44
 70
     1
102
RTVSPropertyOp45
 70
     1
102
RTVSPropertyOp46
 70
     1
102
RTVSPropertyOp47
 70
     1
102
RTVSPropertyOp48
 70
     1
102
RTVSPropertyOp49
 70
     1
102
RTVSPropertyOp50
 70
     1
102
RTVSPropertyOp51
 70
     0
102
RTVSPropertyOp52
 70
     0
102
RTVSPropertyOp53
 70
     1
102
RTVSPropertyOp54
 70
     1
102
RTVSPropertyOp55
 70
     1
102
RTVSPropertyOp56
 70
     1
102
RTVSPropertyOp57
 70
     1
102
RTVSPropertyOp58
 70
     1
102
RTVSPropertyOp59
 70
     1
102
RTVSPropertyOp60
 70
     1
102
RTVSPropertyOp61
 70
     1
102
RTVSPropertyOp62
 70
     1
  0
ENDSEC
  0
EOF
